999
DXF file: K:\Client\125_Heirloom\001\00\Final_Data\Drawings\LADDER TOWEL WARMERS\wg1025n_1.dxf
999
Pro/ENGINEER 2017110 by Parametric Technology Corporation
  0
SECTION
  2
HEADER
  9
$EXTMAX
 10
420.0
 20
297.0
 30
0.0
  9
$EXTMIN
 10
0.0
 20
0.0
 30
0.0
  9
$LIMMIN
 10
0.0
 20
0.0
  9
$LIMMAX
 10
420.0
 20
297.0
  9
$VIEWCTR
 10
210.0
 20
148.5
  9
$VIEWSIZE
 40
297.0
  9
$CLAYER
  8
0
  9
$LTSCALE
 40
23.1
  9
$CELTYPE
  6
BYLAYER
  9
$DIMSCALE
 40
1.0
  9
$DIMASZ
 40
3.0
  9
$DIMEXO
 40
1.0
  9
$DIMDLI
 40
15.96
  9
$DIMEXE
 40
1.0
  9
$DIMCEN
 40
3.78
  9
$DIMLFAC
 40
1.0
  9
$DIMBLK
  1
_FILLED
  9
$DIMALT
 70
0
  9
$DIMALTF
 40
0.0393700787
  9
$DIMTXT
 40
3.0
  9
$AUNITS
 70
0
  9
$PDMODE
 70
3
  9
$PDSIZE
 40
5.0
  9
$TILEMODE
 70
1
  0
ENDSEC
  0
SECTION
  2
TABLES
  0
TABLE
  2
LTYPE
 70
6
  0
LTYPE
  2
BYBLOCK
 70
0
  3

 72
65
 73
0
 40
0.0
  0
LTYPE
  2
BYLAYER
 70
0
  3

 72
65
 73
0
 40
0.0
  0
LTYPE
  2
CONTINUOUS
 70
64
  3
Solid line
 72
65
 73
0
 40
0.0
  0
LTYPE
  2
CENTER
 70
64
  3
____ _ ____ _ ____ _ ____ _ ____ _ ____ _ ____
 72
65
 73
4
 40
0.6
 49
0.375
 49
-0.075
 49
0.075
 49
-0.075
  0
LTYPE
  2
HIDDEN
 70
64
  3
- - - - - - - - - - - - - - - - - - - -
 72
65
 73
2
 40
0.2
 49
0.1
 49
-0.1
  0
LTYPE
  2
PHANTOM
 70
64
  3
_____ _ _ _____ _ _ _____ _ _ _____
 72
65
 73
6
 40
0.8
 49
0.45
 49
-0.05
 49
0.1
 49
-0.05
 49
0.1
 49
-0.05
  0
LTYPE
  2
DOT
 70
64
  3
. . . . . . . . . . . . . . . . . . . .
 72
65
 73
2
 40
0.2
 49
0.1
 49
-0.1
  0
LTYPE
  2
DASHED
 70
64
  3
- - - - - - - - - - - - - - - - - - - -
 72
65
 73
2
 40
0.2
 49
0.1
 49
-0.1
  0
ENDTAB
  0
TABLE
  2
LAYER
 70
36
  0
LAYER
  2
0
 70
0
 62
7
  6
CONTINUOUS
  0
LAYER
  2
DEFAULT_1
 70
0
 62
7
  6
CENTER
  0
LAYER
  2
DEFAULT_2
 70
0
 62
8
  6
HIDDEN
  0
LAYER
  2
DEFAULT_3
 70
0
 62
7
  6
PHANTOM
  0
LAYER
  2
0000_BOM
 70
0
 62
7
  6
CONTINUOUS
  0
LAYER
  2
0000_REV_TABLE
 70
0
 62
7
  6
CONTINUOUS
  0
LAYER
  2
0000_STEVENS_NOTE
 70
0
 62
7
  6
CONTINUOUS
  0
LAYER
  2
01_DATUM_PLANES
 70
0
 62
7
  6
CONTINUOUS
  0
LAYER
  2
01_DEF_PLANES
 70
0
 62
7
  6
CONTINUOUS
  0
LAYER
  2
02_DATUM_COS
 70
0
 62
7
  6
CONTINUOUS
  0
LAYER
  2
99_SOLID
 70
0
 62
7
  6
CONTINUOUS
  0
LAYER
  2
CAD-MASTER_ZINC-PL
 70
0
 62
7
  6
CONTINUOUS
  0
LAYER
  2
CURVE
 70
0
 62
7
  6
CONTINUOUS
  0
LAYER
  2
SKEL
 70
0
 62
7
  6
CONTINUOUS
  0
LAYER
  2
SKETCH
 70
0
 62
7
  6
CONTINUOUS
  0
LAYER
  2
SURFACE
 70
0
 62
7
  6
CONTINUOUS
  0
ENDTAB
  0
TABLE
  2
STYLE
 70
1
  0
STYLE
  2
STANDARD
 70
0
 40
0.0
 41
0.75
 50
0.0
 71
0
 42
0.2
  3
txt
  4

  0
STYLE
  2
TEXTSTYLE_1
 70
0
 40
0.0
 41
0.8
 50
0.0
 71
0
 42
0.2
  3
gdt
  4

  0
ENDTAB
  0
ENDSEC
  0
SECTION
  2
BLOCKS
  0
ENDSEC
  0
SECTION
  2
ENTITIES
  0
LINE
  8
0
 62
7
  6
CONTINUOUS
 10
-85.724607958
 20
-360.5259805629
 11
-115.724607958
 21
-360.5259805629
  0
LINE
  8
0
 62
7
  6
CONTINUOUS
 10
454.275392042
 20
-360.5259805629
 11
484.275392042
 21
-360.5259805629
  0
POLYLINE
  8
0
 62
7
  6
CONTINUOUS
 66
1
 70
0
  0
VERTEX
  8
0
 62
7
  6
CONTINUOUS
 10
-86.4081977032
 20
620.0218850107
  0
VERTEX
  8
0
 62
7
  6
CONTINUOUS
 10
-86.5536090325
 20
619.8136047306
  0
VERTEX
  8
0
 62
7
  6
CONTINUOUS
 10
-86.7130458731
 20
619.5825506495
  0
VERTEX
  8
0
 62
7
  6
CONTINUOUS
 10
-86.8862827008
 20
619.3281341059
  0
VERTEX
  8
0
 62
7
  6
CONTINUOUS
 10
-87.0727363615
 20
619.0500096359
  0
VERTEX
  8
0
 62
7
  6
CONTINUOUS
 10
-87.2720078728
 20
618.74736131
  0
VERTEX
  8
0
 62
7
  6
CONTINUOUS
 10
-87.48256578
 20
618.4210118632
  0
VERTEX
  8
0
 62
7
  6
CONTINUOUS
 10
-87.7029143638
 20
618.0711643212
  0
VERTEX
  8
0
 62
7
  6
CONTINUOUS
 10
-87.9311256022
 20
617.6988618814
  0
VERTEX
  8
0
 62
7
  6
CONTINUOUS
 10
-88.1655807368
 20
617.3037846938
  0
VERTEX
  8
0
 62
7
  6
CONTINUOUS
 10
-88.4025181044
 20
616.8902249258
  0
VERTEX
  8
0
 62
7
  6
CONTINUOUS
 10
-88.6380664455
 20
616.4609912288
  0
VERTEX
  8
0
 62
7
  6
CONTINUOUS
 10
-88.8689564651
 20
616.0202143001
  0
VERTEX
  8
0
 62
7
  6
CONTINUOUS
 10
-89.0910529088
 20
615.5719713634
  0
VERTEX
  8
0
 62
7
  6
CONTINUOUS
 10
-89.3021210538
 20
615.1192314909
  0
VERTEX
  8
0
 62
7
  6
CONTINUOUS
 10
-89.4991266897
 20
614.6654026914
  0
VERTEX
  8
0
 62
7
  6
CONTINUOUS
 10
-89.6805581311
 20
614.2132453781
  0
VERTEX
  8
0
 62
7
  6
CONTINUOUS
 10
-89.8441209123
 20
613.7668022562
  0
VERTEX
  8
0
 62
7
  6
CONTINUOUS
 10
-89.9899294231
 20
613.3256344581
  0
VERTEX
  8
0
 62
7
  6
CONTINUOUS
 10
-90.117627084
 20
612.8911299799
  0
VERTEX
  8
0
 62
7
  6
CONTINUOUS
 10
-90.227498567
 20
612.4618509361
  0
VERTEX
  8
0
 62
7
  6
CONTINUOUS
 10
-90.3200635733
 20
612.0367553886
  0
VERTEX
  8
0
 62
7
  6
CONTINUOUS
 10
-90.3952206094
 20
611.6160434926
  0
VERTEX
  8
0
 62
7
  6
CONTINUOUS
 10
-90.4531963688
 20
611.1997868037
  0
VERTEX
  8
0
 62
7
  6
CONTINUOUS
 10
-90.4941889665
 20
610.7873291823
  0
VERTEX
  8
0
 62
7
  6
CONTINUOUS
 10
-90.5186311186
 20
610.3787325662
  0
VERTEX
  8
0
 62
7
  6
CONTINUOUS
 10
-90.5265687136
 20
609.9719142783
  0
VERTEX
  8
0
 62
7
  6
CONTINUOUS
 10
-90.5184847559
 20
609.5654048971
  0
VERTEX
  8
0
 62
7
  6
CONTINUOUS
 10
-90.4939274395
 20
609.1574265933
  0
VERTEX
  8
0
 62
7
  6
CONTINUOUS
 10
-90.4528992115
 20
608.7457150154
  0
VERTEX
  8
0
 62
7
  6
CONTINUOUS
 10
-90.3949446493
 20
608.3302603088
  0
VERTEX
  8
0
 62
7
  6
CONTINUOUS
 10
-90.3198731687
 20
607.9102980286
  0
VERTEX
  8
0
 62
7
  6
CONTINUOUS
 10
-90.2274131593
 20
607.4858275949
  0
VERTEX
  8
0
 62
7
  6
CONTINUOUS
 10
-90.1176284967
 20
607.0569176504
  0
VERTEX
  8
0
 62
7
  6
CONTINUOUS
 10
-89.9899892644
 20
606.6225960831
  0
VERTEX
  8
0
 62
7
  6
CONTINUOUS
 10
-89.8441771943
 20
606.1814124522
  0
VERTEX
  8
0
 62
7
  6
CONTINUOUS
 10
-89.6805876454
 20
605.7348703873
  0
VERTEX
  8
0
 62
7
  6
CONTINUOUS
 10
-89.4991384981
 20
605.2826624583
  0
VERTEX
  8
0
 62
7
  6
CONTINUOUS
 10
-89.3021048468
 20
604.8287714035
  0
VERTEX
  8
0
 62
7
  6
CONTINUOUS
 10
-89.0909674953
 20
604.3759009018
  0
VERTEX
  8
0
 62
7
  6
CONTINUOUS
 10
-88.8688320921
 20
603.9275807015
  0
VERTEX
  8
0
 62
7
  6
CONTINUOUS
 10
-88.6380257382
 20
603.4869565536
  0
VERTEX
  8
0
 62
7
  6
CONTINUOUS
 10
-88.4025574955
 20
603.0578841289
  0
VERTEX
  8
0
 62
7
  6
CONTINUOUS
 10
-88.1655977762
 20
602.6442880676
  0
VERTEX
  8
0
 62
7
  6
CONTINUOUS
 10
-87.9310834675
 20
602.2491072117
  0
VERTEX
  8
0
 62
7
  6
CONTINUOUS
 10
-87.7027946569
 20
601.8766861205
  0
VERTEX
  8
0
 62
7
  6
CONTINUOUS
 10
-87.4823777733
 20
601.5267322829
  0
VERTEX
  8
0
 62
7
  6
CONTINUOUS
 10
-87.2717921992
 20
601.2003457873
  0
VERTEX
  8
0
 62
7
  6
CONTINUOUS
 10
-87.0725130844
 20
600.8976933941
  0
VERTEX
  8
0
 62
7
  6
CONTINUOUS
 10
-86.8860672132
 20
600.6195844687
  0
VERTEX
  8
0
 62
7
  6
CONTINUOUS
 10
-86.7128422419
 20
600.3651912835
  0
VERTEX
  8
0
 62
7
  6
CONTINUOUS
 10
-86.5534066206
 20
600.1341445884
  0
VERTEX
  8
0
 62
7
  6
CONTINUOUS
 10
-86.4080043105
 20
599.9258783155
  0
VERTEX
  8
0
 62
7
  6
CONTINUOUS
 10
-86.1600372628
 20
599.5756195824
  0
SEQEND
  0
LINE
  8
0
 62
7
  6
CONTINUOUS
 10
-86.1601683967
 20
620.3722356176
 11
-86.4081977032
 21
620.0218850107
  0
LINE
  8
0
 62
7
  6
CONTINUOUS
 10
-85.9684307729
 20
620.6391385231
 11
-86.1601683967
 21
620.3722356176
  0
POLYLINE
  8
0
 62
7
  6
CONTINUOUS
 66
1
 70
0
  0
VERTEX
  8
0
 62
7
  6
CONTINUOUS
 10
-85.7313289652
 20
620.9649334239
  0
VERTEX
  8
0
 62
7
  6
CONTINUOUS
 10
-85.785311434
 20
620.8911090305
  0
VERTEX
  8
0
 62
7
  6
CONTINUOUS
 10
-85.9684307729
 20
620.6391385231
  0
SEQEND
  0
LINE
  8
0
 62
7
  6
CONTINUOUS
 10
-85.724607958
 20
620.9740194371
 11
-85.7313289652
 21
620.9649334239
  0
LINE
  8
0
 62
7
  6
CONTINUOUS
 10
-85.7313276794
 20
-317.0168945353
 11
-85.724607958
 21
-317.0259805629
  0
LINE
  8
0
 62
7
  6
CONTINUOUS
 10
-85.8936147265
 20
-316.7944331418
 11
-85.7313276794
 21
-317.0168945353
  0
LINE
  8
0
 62
7
  6
CONTINUOUS
 10
-86.057163085
 20
-316.5679981111
 11
-85.8936147265
 21
-316.7944331418
  0
POLYLINE
  8
0
 62
7
  6
CONTINUOUS
 66
1
 70
0
  0
VERTEX
  8
0
 62
7
  6
CONTINUOUS
 10
-86.4081977032
 20
523.0218850107
  0
VERTEX
  8
0
 62
7
  6
CONTINUOUS
 10
-86.5536090325
 20
522.8136047306
  0
VERTEX
  8
0
 62
7
  6
CONTINUOUS
 10
-86.7130458731
 20
522.5825506495
  0
VERTEX
  8
0
 62
7
  6
CONTINUOUS
 10
-86.8862827008
 20
522.3281341059
  0
VERTEX
  8
0
 62
7
  6
CONTINUOUS
 10
-87.0727363615
 20
522.0500096359
  0
VERTEX
  8
0
 62
7
  6
CONTINUOUS
 10
-87.2720078728
 20
521.74736131
  0
VERTEX
  8
0
 62
7
  6
CONTINUOUS
 10
-87.48256578
 20
521.4210118632
  0
VERTEX
  8
0
 62
7
  6
CONTINUOUS
 10
-87.7029143638
 20
521.0711643212
  0
VERTEX
  8
0
 62
7
  6
CONTINUOUS
 10
-87.9311256022
 20
520.6988618814
  0
VERTEX
  8
0
 62
7
  6
CONTINUOUS
 10
-88.1655807368
 20
520.3037846938
  0
VERTEX
  8
0
 62
7
  6
CONTINUOUS
 10
-88.4025181044
 20
519.8902249258
  0
VERTEX
  8
0
 62
7
  6
CONTINUOUS
 10
-88.6380664455
 20
519.4609912288
  0
VERTEX
  8
0
 62
7
  6
CONTINUOUS
 10
-88.8689564651
 20
519.0202143001
  0
VERTEX
  8
0
 62
7
  6
CONTINUOUS
 10
-89.0910529088
 20
518.5719713634
  0
VERTEX
  8
0
 62
7
  6
CONTINUOUS
 10
-89.3021210538
 20
518.1192314909
  0
VERTEX
  8
0
 62
7
  6
CONTINUOUS
 10
-89.4991266897
 20
517.6654026914
  0
VERTEX
  8
0
 62
7
  6
CONTINUOUS
 10
-89.6805581311
 20
517.2132453781
  0
VERTEX
  8
0
 62
7
  6
CONTINUOUS
 10
-89.8441209123
 20
516.7668022562
  0
VERTEX
  8
0
 62
7
  6
CONTINUOUS
 10
-89.9899294231
 20
516.3256344581
  0
VERTEX
  8
0
 62
7
  6
CONTINUOUS
 10
-90.117627084
 20
515.8911299799
  0
VERTEX
  8
0
 62
7
  6
CONTINUOUS
 10
-90.227498567
 20
515.4618509361
  0
VERTEX
  8
0
 62
7
  6
CONTINUOUS
 10
-90.3200635733
 20
515.0367553886
  0
VERTEX
  8
0
 62
7
  6
CONTINUOUS
 10
-90.3952206094
 20
514.6160434926
  0
VERTEX
  8
0
 62
7
  6
CONTINUOUS
 10
-90.4531963688
 20
514.1997868037
  0
VERTEX
  8
0
 62
7
  6
CONTINUOUS
 10
-90.4941889665
 20
513.7873291823
  0
VERTEX
  8
0
 62
7
  6
CONTINUOUS
 10
-90.5186311186
 20
513.3787325662
  0
VERTEX
  8
0
 62
7
  6
CONTINUOUS
 10
-90.5265687136
 20
512.9719142783
  0
VERTEX
  8
0
 62
7
  6
CONTINUOUS
 10
-90.5184847559
 20
512.5654048971
  0
VERTEX
  8
0
 62
7
  6
CONTINUOUS
 10
-90.4939274395
 20
512.1574265933
  0
VERTEX
  8
0
 62
7
  6
CONTINUOUS
 10
-90.4528992115
 20
511.7457150154
  0
VERTEX
  8
0
 62
7
  6
CONTINUOUS
 10
-90.3949446493
 20
511.3302603088
  0
VERTEX
  8
0
 62
7
  6
CONTINUOUS
 10
-90.3198731687
 20
510.9102980286
  0
VERTEX
  8
0
 62
7
  6
CONTINUOUS
 10
-90.2274131593
 20
510.4858275949
  0
VERTEX
  8
0
 62
7
  6
CONTINUOUS
 10
-90.1176284967
 20
510.0569176504
  0
VERTEX
  8
0
 62
7
  6
CONTINUOUS
 10
-89.9899892644
 20
509.6225960831
  0
VERTEX
  8
0
 62
7
  6
CONTINUOUS
 10
-89.8441771943
 20
509.1814124522
  0
VERTEX
  8
0
 62
7
  6
CONTINUOUS
 10
-89.6805876454
 20
508.7348703873
  0
VERTEX
  8
0
 62
7
  6
CONTINUOUS
 10
-89.4991384981
 20
508.2826624583
  0
VERTEX
  8
0
 62
7
  6
CONTINUOUS
 10
-89.3021048468
 20
507.8287714035
  0
VERTEX
  8
0
 62
7
  6
CONTINUOUS
 10
-89.0909674953
 20
507.3759009018
  0
VERTEX
  8
0
 62
7
  6
CONTINUOUS
 10
-88.8688320921
 20
506.9275807015
  0
VERTEX
  8
0
 62
7
  6
CONTINUOUS
 10
-88.6380257382
 20
506.4869565536
  0
VERTEX
  8
0
 62
7
  6
CONTINUOUS
 10
-88.4025574955
 20
506.0578841289
  0
VERTEX
  8
0
 62
7
  6
CONTINUOUS
 10
-88.1655977762
 20
505.6442880676
  0
VERTEX
  8
0
 62
7
  6
CONTINUOUS
 10
-87.9310834675
 20
505.2491072117
  0
VERTEX
  8
0
 62
7
  6
CONTINUOUS
 10
-87.7027946569
 20
504.8766861205
  0
VERTEX
  8
0
 62
7
  6
CONTINUOUS
 10
-87.4823777733
 20
504.5267322829
  0
VERTEX
  8
0
 62
7
  6
CONTINUOUS
 10
-87.2717921992
 20
504.2003457873
  0
VERTEX
  8
0
 62
7
  6
CONTINUOUS
 10
-87.0725130844
 20
503.8976933941
  0
VERTEX
  8
0
 62
7
  6
CONTINUOUS
 10
-86.8860672132
 20
503.6195844687
  0
VERTEX
  8
0
 62
7
  6
CONTINUOUS
 10
-86.7128422419
 20
503.3651912835
  0
VERTEX
  8
0
 62
7
  6
CONTINUOUS
 10
-86.5534066206
 20
503.1341445884
  0
VERTEX
  8
0
 62
7
  6
CONTINUOUS
 10
-86.4080043105
 20
502.9258783155
  0
VERTEX
  8
0
 62
7
  6
CONTINUOUS
 10
-86.2769474761
 20
502.7399684969
  0
VERTEX
  8
0
 62
7
  6
CONTINUOUS
 10
-86.057163085
 20
502.4320018889
  0
SEQEND
  0
LINE
  8
0
 62
7
  6
CONTINUOUS
 10
-86.1601683967
 20
523.3722356176
 11
-86.4081977032
 21
523.0218850107
  0
LINE
  8
0
 62
7
  6
CONTINUOUS
 10
-85.9684307729
 20
523.6391385231
 11
-86.1601683967
 21
523.3722356176
  0
POLYLINE
  8
0
 62
7
  6
CONTINUOUS
 66
1
 70
0
  0
VERTEX
  8
0
 62
7
  6
CONTINUOUS
 10
-85.7313289652
 20
523.9649334239
  0
VERTEX
  8
0
 62
7
  6
CONTINUOUS
 10
-85.785311434
 20
523.8911090305
  0
VERTEX
  8
0
 62
7
  6
CONTINUOUS
 10
-85.9684307729
 20
523.6391385231
  0
SEQEND
  0
LINE
  8
0
 62
7
  6
CONTINUOUS
 10
-85.724607958
 20
523.9740194371
 11
-85.7313289652
 21
523.9649334239
  0
LINE
  8
0
 62
7
  6
CONTINUOUS
 10
-85.724607958
 20
-317.0259805629
 11
454.275392042
 21
-317.0259805629
  0
LINE
  8
0
 62
7
  6
CONTINUOUS
 10
454.275392042
 20
-295.0259805629
 11
-85.724607958
 21
-295.0259805629
  0
LINE
  8
0
 62
7
  6
CONTINUOUS
 10
-85.7313276794
 20
-220.0168945353
 11
-85.724607958
 21
-220.0259805629
  0
LINE
  8
0
 62
7
  6
CONTINUOUS
 10
-85.8936147265
 20
-219.7944331418
 11
-85.7313276794
 21
-220.0168945353
  0
LINE
  8
0
 62
7
  6
CONTINUOUS
 10
-86.057163085
 20
-219.5679981111
 11
-85.8936147265
 21
-219.7944331418
  0
POLYLINE
  8
0
 62
7
  6
CONTINUOUS
 66
1
 70
0
  0
VERTEX
  8
0
 62
7
  6
CONTINUOUS
 10
-86.4081977032
 20
426.0218850107
  0
VERTEX
  8
0
 62
7
  6
CONTINUOUS
 10
-86.5536090325
 20
425.8136047306
  0
VERTEX
  8
0
 62
7
  6
CONTINUOUS
 10
-86.7130458731
 20
425.5825506495
  0
VERTEX
  8
0
 62
7
  6
CONTINUOUS
 10
-86.8862827008
 20
425.3281341059
  0
VERTEX
  8
0
 62
7
  6
CONTINUOUS
 10
-87.0727363615
 20
425.0500096359
  0
VERTEX
  8
0
 62
7
  6
CONTINUOUS
 10
-87.2720078728
 20
424.74736131
  0
VERTEX
  8
0
 62
7
  6
CONTINUOUS
 10
-87.48256578
 20
424.4210118632
  0
VERTEX
  8
0
 62
7
  6
CONTINUOUS
 10
-87.7029143638
 20
424.0711643212
  0
VERTEX
  8
0
 62
7
  6
CONTINUOUS
 10
-87.9311256022
 20
423.6988618814
  0
VERTEX
  8
0
 62
7
  6
CONTINUOUS
 10
-88.1655807368
 20
423.3037846938
  0
VERTEX
  8
0
 62
7
  6
CONTINUOUS
 10
-88.4025181044
 20
422.8902249258
  0
VERTEX
  8
0
 62
7
  6
CONTINUOUS
 10
-88.6380664455
 20
422.4609912288
  0
VERTEX
  8
0
 62
7
  6
CONTINUOUS
 10
-88.8689564651
 20
422.0202143001
  0
VERTEX
  8
0
 62
7
  6
CONTINUOUS
 10
-89.0910529088
 20
421.5719713634
  0
VERTEX
  8
0
 62
7
  6
CONTINUOUS
 10
-89.3021210538
 20
421.1192314909
  0
VERTEX
  8
0
 62
7
  6
CONTINUOUS
 10
-89.4991266897
 20
420.6654026914
  0
VERTEX
  8
0
 62
7
  6
CONTINUOUS
 10
-89.6805581311
 20
420.2132453781
  0
VERTEX
  8
0
 62
7
  6
CONTINUOUS
 10
-89.8441209123
 20
419.7668022562
  0
VERTEX
  8
0
 62
7
  6
CONTINUOUS
 10
-89.9899294231
 20
419.3256344581
  0
VERTEX
  8
0
 62
7
  6
CONTINUOUS
 10
-90.117627084
 20
418.8911299799
  0
VERTEX
  8
0
 62
7
  6
CONTINUOUS
 10
-90.227498567
 20
418.4618509361
  0
VERTEX
  8
0
 62
7
  6
CONTINUOUS
 10
-90.3200635733
 20
418.0367553886
  0
VERTEX
  8
0
 62
7
  6
CONTINUOUS
 10
-90.3952206094
 20
417.6160434926
  0
VERTEX
  8
0
 62
7
  6
CONTINUOUS
 10
-90.4531963688
 20
417.1997868037
  0
VERTEX
  8
0
 62
7
  6
CONTINUOUS
 10
-90.4941889665
 20
416.7873291823
  0
VERTEX
  8
0
 62
7
  6
CONTINUOUS
 10
-90.5186311186
 20
416.3787325662
  0
VERTEX
  8
0
 62
7
  6
CONTINUOUS
 10
-90.5265687136
 20
415.9719142783
  0
VERTEX
  8
0
 62
7
  6
CONTINUOUS
 10
-90.5184847559
 20
415.5654048971
  0
VERTEX
  8
0
 62
7
  6
CONTINUOUS
 10
-90.4939274395
 20
415.1574265933
  0
VERTEX
  8
0
 62
7
  6
CONTINUOUS
 10
-90.4528992115
 20
414.7457150154
  0
VERTEX
  8
0
 62
7
  6
CONTINUOUS
 10
-90.3949446493
 20
414.3302603088
  0
VERTEX
  8
0
 62
7
  6
CONTINUOUS
 10
-90.3198731687
 20
413.9102980286
  0
VERTEX
  8
0
 62
7
  6
CONTINUOUS
 10
-90.2274131593
 20
413.4858275949
  0
VERTEX
  8
0
 62
7
  6
CONTINUOUS
 10
-90.1176284967
 20
413.0569176504
  0
VERTEX
  8
0
 62
7
  6
CONTINUOUS
 10
-89.9899892644
 20
412.6225960831
  0
VERTEX
  8
0
 62
7
  6
CONTINUOUS
 10
-89.8441771943
 20
412.1814124522
  0
VERTEX
  8
0
 62
7
  6
CONTINUOUS
 10
-89.6805876454
 20
411.7348703873
  0
VERTEX
  8
0
 62
7
  6
CONTINUOUS
 10
-89.4991384981
 20
411.2826624583
  0
VERTEX
  8
0
 62
7
  6
CONTINUOUS
 10
-89.3021048468
 20
410.8287714035
  0
VERTEX
  8
0
 62
7
  6
CONTINUOUS
 10
-89.0909674953
 20
410.3759009018
  0
VERTEX
  8
0
 62
7
  6
CONTINUOUS
 10
-88.8688320921
 20
409.9275807015
  0
VERTEX
  8
0
 62
7
  6
CONTINUOUS
 10
-88.6380257382
 20
409.4869565536
  0
VERTEX
  8
0
 62
7
  6
CONTINUOUS
 10
-88.4025574955
 20
409.0578841289
  0
VERTEX
  8
0
 62
7
  6
CONTINUOUS
 10
-88.1655977762
 20
408.6442880676
  0
VERTEX
  8
0
 62
7
  6
CONTINUOUS
 10
-87.9310834675
 20
408.2491072117
  0
VERTEX
  8
0
 62
7
  6
CONTINUOUS
 10
-87.7027946569
 20
407.8766861205
  0
VERTEX
  8
0
 62
7
  6
CONTINUOUS
 10
-87.4823777733
 20
407.5267322829
  0
VERTEX
  8
0
 62
7
  6
CONTINUOUS
 10
-87.2717921992
 20
407.2003457873
  0
VERTEX
  8
0
 62
7
  6
CONTINUOUS
 10
-87.0725130844
 20
406.8976933941
  0
VERTEX
  8
0
 62
7
  6
CONTINUOUS
 10
-86.8860672132
 20
406.6195844687
  0
VERTEX
  8
0
 62
7
  6
CONTINUOUS
 10
-86.7128422419
 20
406.3651912835
  0
VERTEX
  8
0
 62
7
  6
CONTINUOUS
 10
-86.5534066206
 20
406.1341445884
  0
VERTEX
  8
0
 62
7
  6
CONTINUOUS
 10
-86.4080043105
 20
405.9258783155
  0
VERTEX
  8
0
 62
7
  6
CONTINUOUS
 10
-86.2769474761
 20
405.7399684969
  0
VERTEX
  8
0
 62
7
  6
CONTINUOUS
 10
-86.057163085
 20
405.4320018889
  0
SEQEND
  0
LINE
  8
0
 62
7
  6
CONTINUOUS
 10
-86.1601683967
 20
426.3722356176
 11
-86.4081977032
 21
426.0218850107
  0
LINE
  8
0
 62
7
  6
CONTINUOUS
 10
-85.9684307729
 20
426.6391385231
 11
-86.1601683967
 21
426.3722356176
  0
POLYLINE
  8
0
 62
7
  6
CONTINUOUS
 66
1
 70
0
  0
VERTEX
  8
0
 62
7
  6
CONTINUOUS
 10
-85.7313289652
 20
426.9649334239
  0
VERTEX
  8
0
 62
7
  6
CONTINUOUS
 10
-85.785311434
 20
426.8911090305
  0
VERTEX
  8
0
 62
7
  6
CONTINUOUS
 10
-85.9684307729
 20
426.6391385231
  0
SEQEND
  0
LINE
  8
0
 62
7
  6
CONTINUOUS
 10
-85.724607958
 20
426.9740194371
 11
-85.7313289652
 21
426.9649334239
  0
LINE
  8
0
 62
7
  6
CONTINUOUS
 10
-85.724607958
 20
-220.0259805629
 11
454.275392042
 21
-220.0259805629
  0
LINE
  8
0
 62
7
  6
CONTINUOUS
 10
-85.7313276794
 20
-123.0168945353
 11
-85.724607958
 21
-123.0259805629
  0
LINE
  8
0
 62
7
  6
CONTINUOUS
 10
-85.8936147265
 20
-122.7944331418
 11
-85.7313276794
 21
-123.0168945353
  0
LINE
  8
0
 62
7
  6
CONTINUOUS
 10
-86.057163085
 20
-122.5679981111
 11
-85.8936147265
 21
-122.7944331418
  0
LINE
  8
0
 62
7
  6
CONTINUOUS
 10
454.275392042
 20
-198.0259805629
 11
-85.724607958
 21
-198.0259805629
  0
LINE
  8
0
 62
7
  6
CONTINUOUS
 10
-115.724607958
 20
664.4740194371
 11
-115.724607958
 21
-360.5259805629
  0
POLYLINE
  8
0
 62
7
  6
CONTINUOUS
 66
1
 70
0
  0
VERTEX
  8
0
 62
7
  6
CONTINUOUS
 10
-86.4081977032
 20
259.0218850107
  0
VERTEX
  8
0
 62
7
  6
CONTINUOUS
 10
-86.5536090325
 20
258.8136047306
  0
VERTEX
  8
0
 62
7
  6
CONTINUOUS
 10
-86.7130458731
 20
258.5825506495
  0
VERTEX
  8
0
 62
7
  6
CONTINUOUS
 10
-86.8862827008
 20
258.3281341059
  0
VERTEX
  8
0
 62
7
  6
CONTINUOUS
 10
-87.0727363615
 20
258.0500096359
  0
VERTEX
  8
0
 62
7
  6
CONTINUOUS
 10
-87.2720078728
 20
257.74736131
  0
VERTEX
  8
0
 62
7
  6
CONTINUOUS
 10
-87.48256578
 20
257.4210118632
  0
VERTEX
  8
0
 62
7
  6
CONTINUOUS
 10
-87.7029143638
 20
257.0711643212
  0
VERTEX
  8
0
 62
7
  6
CONTINUOUS
 10
-87.9311256022
 20
256.6988618814
  0
VERTEX
  8
0
 62
7
  6
CONTINUOUS
 10
-88.1655807368
 20
256.3037846938
  0
VERTEX
  8
0
 62
7
  6
CONTINUOUS
 10
-88.4025181044
 20
255.8902249258
  0
VERTEX
  8
0
 62
7
  6
CONTINUOUS
 10
-88.6380664455
 20
255.4609912288
  0
VERTEX
  8
0
 62
7
  6
CONTINUOUS
 10
-88.8689564651
 20
255.0202143001
  0
VERTEX
  8
0
 62
7
  6
CONTINUOUS
 10
-89.0910529088
 20
254.5719713634
  0
VERTEX
  8
0
 62
7
  6
CONTINUOUS
 10
-89.3021210538
 20
254.1192314909
  0
VERTEX
  8
0
 62
7
  6
CONTINUOUS
 10
-89.4991266897
 20
253.6654026914
  0
VERTEX
  8
0
 62
7
  6
CONTINUOUS
 10
-89.6805581311
 20
253.2132453781
  0
VERTEX
  8
0
 62
7
  6
CONTINUOUS
 10
-89.8441209123
 20
252.7668022562
  0
VERTEX
  8
0
 62
7
  6
CONTINUOUS
 10
-89.9899294231
 20
252.3256344581
  0
VERTEX
  8
0
 62
7
  6
CONTINUOUS
 10
-90.117627084
 20
251.8911299799
  0
VERTEX
  8
0
 62
7
  6
CONTINUOUS
 10
-90.227498567
 20
251.4618509361
  0
VERTEX
  8
0
 62
7
  6
CONTINUOUS
 10
-90.3200635733
 20
251.0367553886
  0
VERTEX
  8
0
 62
7
  6
CONTINUOUS
 10
-90.3952206094
 20
250.6160434926
  0
VERTEX
  8
0
 62
7
  6
CONTINUOUS
 10
-90.4531963688
 20
250.1997868037
  0
VERTEX
  8
0
 62
7
  6
CONTINUOUS
 10
-90.4941889665
 20
249.7873291823
  0
VERTEX
  8
0
 62
7
  6
CONTINUOUS
 10
-90.5186311186
 20
249.3787325662
  0
VERTEX
  8
0
 62
7
  6
CONTINUOUS
 10
-90.5265687136
 20
248.9719142783
  0
VERTEX
  8
0
 62
7
  6
CONTINUOUS
 10
-90.5184847559
 20
248.5654048971
  0
VERTEX
  8
0
 62
7
  6
CONTINUOUS
 10
-90.4939274395
 20
248.1574265933
  0
VERTEX
  8
0
 62
7
  6
CONTINUOUS
 10
-90.4528992115
 20
247.7457150154
  0
VERTEX
  8
0
 62
7
  6
CONTINUOUS
 10
-90.3949446493
 20
247.3302603088
  0
VERTEX
  8
0
 62
7
  6
CONTINUOUS
 10
-90.3198731687
 20
246.9102980286
  0
VERTEX
  8
0
 62
7
  6
CONTINUOUS
 10
-90.2274131593
 20
246.4858275949
  0
VERTEX
  8
0
 62
7
  6
CONTINUOUS
 10
-90.1176284967
 20
246.0569176504
  0
VERTEX
  8
0
 62
7
  6
CONTINUOUS
 10
-89.9899892644
 20
245.6225960831
  0
VERTEX
  8
0
 62
7
  6
CONTINUOUS
 10
-89.8441771943
 20
245.1814124522
  0
VERTEX
  8
0
 62
7
  6
CONTINUOUS
 10
-89.6805876454
 20
244.7348703873
  0
VERTEX
  8
0
 62
7
  6
CONTINUOUS
 10
-89.4991384981
 20
244.2826624583
  0
VERTEX
  8
0
 62
7
  6
CONTINUOUS
 10
-89.3021048468
 20
243.8287714035
  0
VERTEX
  8
0
 62
7
  6
CONTINUOUS
 10
-89.0909674953
 20
243.3759009018
  0
VERTEX
  8
0
 62
7
  6
CONTINUOUS
 10
-88.8688320921
 20
242.9275807015
  0
VERTEX
  8
0
 62
7
  6
CONTINUOUS
 10
-88.6380257382
 20
242.4869565536
  0
VERTEX
  8
0
 62
7
  6
CONTINUOUS
 10
-88.4025574955
 20
242.0578841289
  0
VERTEX
  8
0
 62
7
  6
CONTINUOUS
 10
-88.1655977762
 20
241.6442880676
  0
VERTEX
  8
0
 62
7
  6
CONTINUOUS
 10
-87.9310834675
 20
241.2491072117
  0
VERTEX
  8
0
 62
7
  6
CONTINUOUS
 10
-87.7027946569
 20
240.8766861205
  0
VERTEX
  8
0
 62
7
  6
CONTINUOUS
 10
-87.4823777733
 20
240.5267322829
  0
VERTEX
  8
0
 62
7
  6
CONTINUOUS
 10
-87.2717921992
 20
240.2003457873
  0
VERTEX
  8
0
 62
7
  6
CONTINUOUS
 10
-87.0725130844
 20
239.8976933941
  0
VERTEX
  8
0
 62
7
  6
CONTINUOUS
 10
-86.8860672132
 20
239.6195844687
  0
VERTEX
  8
0
 62
7
  6
CONTINUOUS
 10
-86.7128422419
 20
239.3651912835
  0
VERTEX
  8
0
 62
7
  6
CONTINUOUS
 10
-86.5534066206
 20
239.1341445884
  0
VERTEX
  8
0
 62
7
  6
CONTINUOUS
 10
-86.4080043105
 20
238.9258783155
  0
VERTEX
  8
0
 62
7
  6
CONTINUOUS
 10
-86.2769474761
 20
238.7399684969
  0
VERTEX
  8
0
 62
7
  6
CONTINUOUS
 10
-86.057163085
 20
238.4320018889
  0
SEQEND
  0
LINE
  8
0
 62
7
  6
CONTINUOUS
 10
-86.1601683967
 20
259.3722356176
 11
-86.4081977032
 21
259.0218850107
  0
LINE
  8
0
 62
7
  6
CONTINUOUS
 10
-85.9684307729
 20
259.6391385231
 11
-86.1601683967
 21
259.3722356176
  0
POLYLINE
  8
0
 62
7
  6
CONTINUOUS
 66
1
 70
0
  0
VERTEX
  8
0
 62
7
  6
CONTINUOUS
 10
-85.7313289652
 20
259.9649334239
  0
VERTEX
  8
0
 62
7
  6
CONTINUOUS
 10
-85.785311434
 20
259.8911090305
  0
VERTEX
  8
0
 62
7
  6
CONTINUOUS
 10
-85.9684307729
 20
259.6391385231
  0
SEQEND
  0
LINE
  8
0
 62
7
  6
CONTINUOUS
 10
-85.724607958
 20
259.9740194371
 11
-85.7313289652
 21
259.9649334239
  0
LINE
  8
0
 62
7
  6
CONTINUOUS
 10
-85.724607958
 20
-123.0259805629
 11
454.275392042
 21
-123.0259805629
  0
LINE
  8
0
 62
7
  6
CONTINUOUS
 10
-85.7313276794
 20
43.9831054647
 11
-85.724607958
 21
43.9740194371
  0
LINE
  8
0
 62
7
  6
CONTINUOUS
 10
-85.8936147265
 20
44.2055668582
 11
-85.7313276794
 21
43.9831054647
  0
LINE
  8
0
 62
7
  6
CONTINUOUS
 10
-86.057163085
 20
44.4320018889
 11
-85.8936147265
 21
44.2055668582
  0
LINE
  8
0
 62
7
  6
CONTINUOUS
 10
-85.724607958
 20
664.4740194371
 11
-85.724607958
 21
620.9740194371
  0
LINE
  8
0
 62
7
  6
CONTINUOUS
 10
-85.724607958
 20
598.9740194371
 11
-85.724607958
 21
523.9740194371
  0
LINE
  8
0
 62
7
  6
CONTINUOUS
 10
-85.724607958
 20
501.9740194371
 11
-85.724607958
 21
426.9740194371
  0
LINE
  8
0
 62
7
  6
CONTINUOUS
 10
-85.724607958
 20
404.9740194371
 11
-85.724607958
 21
259.9740194371
  0
LINE
  8
0
 62
7
  6
CONTINUOUS
 10
-85.724607958
 20
237.9740194371
 11
-85.724607958
 21
162.9740194371
  0
LINE
  8
0
 62
7
  6
CONTINUOUS
 10
-85.724607958
 20
140.9740194371
 11
-85.724607958
 21
65.9740194371
  0
LINE
  8
0
 62
7
  6
CONTINUOUS
 10
-85.724607958
 20
43.9740194371
 11
-85.724607958
 21
-101.0259805629
  0
LINE
  8
0
 62
7
  6
CONTINUOUS
 10
-85.724607958
 20
-123.0259805629
 11
-85.724607958
 21
-198.0259805629
  0
LINE
  8
0
 62
7
  6
CONTINUOUS
 10
-85.724607958
 20
-220.0259805629
 11
-85.724607958
 21
-295.0259805629
  0
LINE
  8
0
 62
7
  6
CONTINUOUS
 10
-85.724607958
 20
-317.0259805629
 11
-85.724607958
 21
-360.5259805629
  0
LINE
  8
0
 62
7
  6
CONTINUOUS
 10
454.275392042
 20
-101.0259805629
 11
-85.724607958
 21
-101.0259805629
  0
POLYLINE
  8
0
 62
7
  6
CONTINUOUS
 66
1
 70
0
  0
VERTEX
  8
0
 62
7
  6
CONTINUOUS
 10
-86.4083409872
 20
162.0216808556
  0
VERTEX
  8
0
 62
7
  6
CONTINUOUS
 10
-86.5537821649
 20
161.8133555474
  0
VERTEX
  8
0
 62
7
  6
CONTINUOUS
 10
-86.7132525333
 20
161.5822492864
  0
VERTEX
  8
0
 62
7
  6
CONTINUOUS
 10
-86.8865285414
 20
161.3277701412
  0
VERTEX
  8
0
 62
7
  6
CONTINUOUS
 10
-87.0730245487
 20
161.0495761463
  0
VERTEX
  8
0
 62
7
  6
CONTINUOUS
 10
-87.272340199
 20
160.7468511381
  0
VERTEX
  8
0
 62
7
  6
CONTINUOUS
 10
-87.4829396304
 20
160.4204257794
  0
VERTEX
  8
0
 62
7
  6
CONTINUOUS
 10
-87.703320288
 20
160.0705116373
  0
VERTEX
  8
0
 62
7
  6
CONTINUOUS
 10
-87.9315555309
 20
159.698149835
  0
VERTEX
  8
0
 62
7
  6
CONTINUOUS
 10
-88.1660213133
 20
159.3030323222
  0
VERTEX
  8
0
 62
7
  6
CONTINUOUS
 10
-88.4029708972
 20
158.8894181861
  0
VERTEX
  8
0
 62
7
  6
CONTINUOUS
 10
-88.6385526039
 20
158.4600856277
  0
VERTEX
  8
0
 62
7
  6
CONTINUOUS
 10
-88.8694893872
 20
158.0191692557
  0
VERTEX
  8
0
 62
7
  6
CONTINUOUS
 10
-89.0916637559
 20
157.5706885397
  0
VERTEX
  8
0
 62
7
  6
CONTINUOUS
 10
-89.3027806087
 20
157.1177670979
  0
VERTEX
  8
0
 62
7
  6
CONTINUOUS
 10
-89.4997226874
 20
156.6639824586
  0
VERTEX
  8
0
 62
7
  6
CONTINUOUS
 10
-89.6810390377
 20
156.2119923603
  0
VERTEX
  8
0
 62
7
  6
CONTINUOUS
 10
-89.8443926792
 20
155.7661469226
  0
VERTEX
  8
0
 62
7
  6
CONTINUOUS
 10
-89.9901441901
 20
155.3249465304
  0
VERTEX
  8
0
 62
7
  6
CONTINUOUS
 10
-90.1183171309
 20
154.8885481779
  0
VERTEX
  8
0
 62
7
  6
CONTINUOUS
 10
-90.228805157
 20
154.4563321566
  0
VERTEX
  8
0
 62
7
  6
CONTINUOUS
 10
-90.3218970588
 20
154.0271208775
  0
VERTEX
  8
0
 62
7
  6
CONTINUOUS
 10
-90.3973262789
 20
153.602744976
  0
VERTEX
  8
0
 62
7
  6
CONTINUOUS
 10
-90.4549445526
 20
153.184449707
  0
VERTEX
  8
0
 62
7
  6
CONTINUOUS
 10
-90.4953327075
 20
152.7728136228
  0
VERTEX
  8
0
 62
7
  6
CONTINUOUS
 10
-90.5190645631
 20
152.3707398472
  0
VERTEX
  8
0
 62
7
  6
CONTINUOUS
 10
-90.5265688177
 20
151.9724999208
  0
VERTEX
  8
0
 62
7
  6
CONTINUOUS
 10
-90.5189755428
 20
151.5746481781
  0
VERTEX
  8
0
 62
7
  6
CONTINUOUS
 10
-90.4951774398
 20
151.173239362
  0
VERTEX
  8
0
 62
7
  6
CONTINUOUS
 10
-90.4547848363
 20
150.7622017151
  0
VERTEX
  8
0
 62
7
  6
CONTINUOUS
 10
-90.3971961627
 20
150.3444690725
  0
VERTEX
  8
0
 62
7
  6
CONTINUOUS
 10
-90.3218233592
 20
149.9205368913
  0
VERTEX
  8
0
 62
7
  6
CONTINUOUS
 10
-90.2287913997
 20
149.4916485488
  0
VERTEX
  8
0
 62
7
  6
CONTINUOUS
 10
-90.1183413345
 20
149.0595854992
  0
VERTEX
  8
0
 62
7
  6
CONTINUOUS
 10
-89.9901868391
 20
148.6232289693
  0
VERTEX
  8
0
 62
7
  6
CONTINUOUS
 10
-89.8444204679
 20
148.1819808309
  0
VERTEX
  8
0
 62
7
  6
CONTINUOUS
 10
-89.6810444444
 20
147.7360606029
  0
VERTEX
  8
0
 62
7
  6
CONTINUOUS
 10
-89.499728966
 20
147.2840656648
  0
VERTEX
  8
0
 62
7
  6
CONTINUOUS
 10
-89.302777245
 20
146.830264307
  0
VERTEX
  8
0
 62
7
  6
CONTINUOUS
 10
-89.0915925763
 20
146.3772146308
  0
VERTEX
  8
0
 62
7
  6
CONTINUOUS
 10
-88.8693746356
 20
145.9286445828
  0
VERTEX
  8
0
 62
7
  6
CONTINUOUS
 10
-88.638514738
 20
145.4878680863
  0
VERTEX
  8
0
 62
7
  6
CONTINUOUS
 10
-88.4030071668
 20
145.0586853122
  0
VERTEX
  8
0
 62
7
  6
CONTINUOUS
 10
-88.1660347114
 20
144.6450338968
  0
VERTEX
  8
0
 62
7
  6
CONTINUOUS
 10
-87.9315110495
 20
144.2498153673
  0
VERTEX
  8
0
 62
7
  6
CONTINUOUS
 10
-87.7031997714
 20
143.8773373742
  0
VERTEX
  8
0
 62
7
  6
CONTINUOUS
 10
-87.4827521528
 20
143.5273191838
  0
VERTEX
  8
0
 62
7
  6
CONTINUOUS
 10
-87.2721252517
 20
143.200857109
  0
VERTEX
  8
0
 62
7
  6
CONTINUOUS
 10
-87.0728017947
 20
142.8981276616
  0
VERTEX
  8
0
 62
7
  6
CONTINUOUS
 10
-86.8863132539
 20
142.6199487509
  0
VERTEX
  8
0
 62
7
  6
CONTINUOUS
 10
-86.7130488027
 20
142.3654924967
  0
VERTEX
  8
0
 62
7
  6
CONTINUOUS
 10
-86.5535795714
 20
142.1343935017
  0
VERTEX
  8
0
 62
7
  6
CONTINUOUS
 10
-86.4081474255
 20
141.9260822269
  0
VERTEX
  8
0
 62
7
  6
CONTINUOUS
 10
-86.2770637966
 20
141.7401326061
  0
VERTEX
  8
0
 62
7
  6
CONTINUOUS
 10
-86.0572336493
 20
141.4321000838
  0
SEQEND
  0
LINE
  8
0
 62
7
  6
CONTINUOUS
 10
-86.1602606699
 20
162.3721063732
 11
-86.4083409872
 21
162.0216808556
  0
LINE
  8
0
 62
7
  6
CONTINUOUS
 10
-85.9684823352
 20
162.6390671818
 11
-86.1602606699
 21
162.3721063732
  0
POLYLINE
  8
0
 62
7
  6
CONTINUOUS
 66
1
 70
0
  0
VERTEX
  8
0
 62
7
  6
CONTINUOUS
 10
-85.7313303114
 20
162.9649316858
  0
VERTEX
  8
0
 62
7
  6
CONTINUOUS
 10
-85.7853239368
 20
162.8910919057
  0
VERTEX
  8
0
 62
7
  6
CONTINUOUS
 10
-85.9684823352
 20
162.6390671818
  0
SEQEND
  0
LINE
  8
0
 62
7
  6
CONTINUOUS
 10
-85.724607958
 20
162.9740194371
 11
-85.7313303114
 21
162.9649316858
  0
LINE
  8
0
 62
7
  6
CONTINUOUS
 10
-85.7313290229
 20
140.9831071944
 11
-85.724607958
 21
140.9740194371
  0
LINE
  8
0
 62
7
  6
CONTINUOUS
 10
-85.8936503086
 20
141.2056158808
 11
-85.7313290229
 21
140.9831071944
  0
LINE
  8
0
 62
7
  6
CONTINUOUS
 10
-86.0572336493
 20
141.4321000838
 11
-85.8936503086
 21
141.2056158808
  0
POLYLINE
  8
0
 62
7
  6
CONTINUOUS
 66
1
 70
0
  0
VERTEX
  8
0
 62
7
  6
CONTINUOUS
 10
-86.4081977032
 20
65.0218850107
  0
VERTEX
  8
0
 62
7
  6
CONTINUOUS
 10
-86.5536090325
 20
64.8136047306
  0
VERTEX
  8
0
 62
7
  6
CONTINUOUS
 10
-86.7130458731
 20
64.5825506495
  0
VERTEX
  8
0
 62
7
  6
CONTINUOUS
 10
-86.8862827008
 20
64.3281341059
  0
VERTEX
  8
0
 62
7
  6
CONTINUOUS
 10
-87.0727363615
 20
64.0500096359
  0
VERTEX
  8
0
 62
7
  6
CONTINUOUS
 10
-87.2720078728
 20
63.74736131
  0
VERTEX
  8
0
 62
7
  6
CONTINUOUS
 10
-87.48256578
 20
63.4210118632
  0
VERTEX
  8
0
 62
7
  6
CONTINUOUS
 10
-87.7029143638
 20
63.0711643212
  0
VERTEX
  8
0
 62
7
  6
CONTINUOUS
 10
-87.9311256022
 20
62.6988618814
  0
VERTEX
  8
0
 62
7
  6
CONTINUOUS
 10
-88.1655807368
 20
62.3037846938
  0
VERTEX
  8
0
 62
7
  6
CONTINUOUS
 10
-88.4025181044
 20
61.8902249258
  0
VERTEX
  8
0
 62
7
  6
CONTINUOUS
 10
-88.6380664455
 20
61.4609912288
  0
VERTEX
  8
0
 62
7
  6
CONTINUOUS
 10
-88.8689564651
 20
61.0202143001
  0
VERTEX
  8
0
 62
7
  6
CONTINUOUS
 10
-89.0910529088
 20
60.5719713634
  0
VERTEX
  8
0
 62
7
  6
CONTINUOUS
 10
-89.3021210538
 20
60.1192314909
  0
VERTEX
  8
0
 62
7
  6
CONTINUOUS
 10
-89.4991266897
 20
59.6654026914
  0
VERTEX
  8
0
 62
7
  6
CONTINUOUS
 10
-89.6805581311
 20
59.2132453781
  0
VERTEX
  8
0
 62
7
  6
CONTINUOUS
 10
-89.8441209123
 20
58.7668022562
  0
VERTEX
  8
0
 62
7
  6
CONTINUOUS
 10
-89.9899294231
 20
58.3256344581
  0
VERTEX
  8
0
 62
7
  6
CONTINUOUS
 10
-90.117627084
 20
57.8911299799
  0
VERTEX
  8
0
 62
7
  6
CONTINUOUS
 10
-90.227498567
 20
57.4618509361
  0
VERTEX
  8
0
 62
7
  6
CONTINUOUS
 10
-90.3200635733
 20
57.0367553886
  0
VERTEX
  8
0
 62
7
  6
CONTINUOUS
 10
-90.3952206094
 20
56.6160434926
  0
VERTEX
  8
0
 62
7
  6
CONTINUOUS
 10
-90.4531963688
 20
56.1997868037
  0
VERTEX
  8
0
 62
7
  6
CONTINUOUS
 10
-90.4941889665
 20
55.7873291823
  0
VERTEX
  8
0
 62
7
  6
CONTINUOUS
 10
-90.5186311186
 20
55.3787325662
  0
VERTEX
  8
0
 62
7
  6
CONTINUOUS
 10
-90.5265687136
 20
54.9719142783
  0
VERTEX
  8
0
 62
7
  6
CONTINUOUS
 10
-90.5184847559
 20
54.5654048971
  0
VERTEX
  8
0
 62
7
  6
CONTINUOUS
 10
-90.4939274395
 20
54.1574265933
  0
VERTEX
  8
0
 62
7
  6
CONTINUOUS
 10
-90.4528992115
 20
53.7457150154
  0
VERTEX
  8
0
 62
7
  6
CONTINUOUS
 10
-90.3949446493
 20
53.3302603088
  0
VERTEX
  8
0
 62
7
  6
CONTINUOUS
 10
-90.3198731687
 20
52.9102980286
  0
VERTEX
  8
0
 62
7
  6
CONTINUOUS
 10
-90.2274131593
 20
52.4858275949
  0
VERTEX
  8
0
 62
7
  6
CONTINUOUS
 10
-90.1176284967
 20
52.0569176504
  0
VERTEX
  8
0
 62
7
  6
CONTINUOUS
 10
-89.9899892644
 20
51.6225960831
  0
VERTEX
  8
0
 62
7
  6
CONTINUOUS
 10
-89.8441771943
 20
51.1814124522
  0
VERTEX
  8
0
 62
7
  6
CONTINUOUS
 10
-89.6805876454
 20
50.7348703873
  0
VERTEX
  8
0
 62
7
  6
CONTINUOUS
 10
-89.4991384981
 20
50.2826624583
  0
VERTEX
  8
0
 62
7
  6
CONTINUOUS
 10
-89.3021048468
 20
49.8287714035
  0
VERTEX
  8
0
 62
7
  6
CONTINUOUS
 10
-89.0909674953
 20
49.3759009018
  0
VERTEX
  8
0
 62
7
  6
CONTINUOUS
 10
-88.8688320921
 20
48.9275807015
  0
VERTEX
  8
0
 62
7
  6
CONTINUOUS
 10
-88.6380257382
 20
48.4869565536
  0
VERTEX
  8
0
 62
7
  6
CONTINUOUS
 10
-88.4025574955
 20
48.0578841289
  0
VERTEX
  8
0
 62
7
  6
CONTINUOUS
 10
-88.1655977762
 20
47.6442880676
  0
VERTEX
  8
0
 62
7
  6
CONTINUOUS
 10
-87.9310834675
 20
47.2491072117
  0
VERTEX
  8
0
 62
7
  6
CONTINUOUS
 10
-87.7027946569
 20
46.8766861205
  0
VERTEX
  8
0
 62
7
  6
CONTINUOUS
 10
-87.4823777733
 20
46.5267322829
  0
VERTEX
  8
0
 62
7
  6
CONTINUOUS
 10
-87.2717921992
 20
46.2003457873
  0
VERTEX
  8
0
 62
7
  6
CONTINUOUS
 10
-87.0725130844
 20
45.8976933941
  0
VERTEX
  8
0
 62
7
  6
CONTINUOUS
 10
-86.8860672132
 20
45.6195844687
  0
VERTEX
  8
0
 62
7
  6
CONTINUOUS
 10
-86.7128422419
 20
45.3651912835
  0
VERTEX
  8
0
 62
7
  6
CONTINUOUS
 10
-86.5534066206
 20
45.1341445884
  0
VERTEX
  8
0
 62
7
  6
CONTINUOUS
 10
-86.4080043105
 20
44.9258783155
  0
VERTEX
  8
0
 62
7
  6
CONTINUOUS
 10
-86.2769474761
 20
44.7399684969
  0
VERTEX
  8
0
 62
7
  6
CONTINUOUS
 10
-86.057163085
 20
44.4320018889
  0
SEQEND
  0
LINE
  8
0
 62
7
  6
CONTINUOUS
 10
-86.1601683967
 20
65.3722356176
 11
-86.4081977032
 21
65.0218850107
  0
LINE
  8
0
 62
7
  6
CONTINUOUS
 10
-85.9684307729
 20
65.6391385231
 11
-86.1601683967
 21
65.3722356176
  0
POLYLINE
  8
0
 62
7
  6
CONTINUOUS
 66
1
 70
0
  0
VERTEX
  8
0
 62
7
  6
CONTINUOUS
 10
-85.7313289652
 20
65.9649334239
  0
VERTEX
  8
0
 62
7
  6
CONTINUOUS
 10
-85.785311434
 20
65.8911090305
  0
VERTEX
  8
0
 62
7
  6
CONTINUOUS
 10
-85.9684307729
 20
65.6391385231
  0
SEQEND
  0
LINE
  8
0
 62
7
  6
CONTINUOUS
 10
-85.724607958
 20
65.9740194371
 11
-85.7313289652
 21
65.9649334239
  0
LINE
  8
0
 62
7
  6
CONTINUOUS
 10
-85.7313276794
 20
237.9831054647
 11
-85.724607958
 21
237.9740194371
  0
LINE
  8
0
 62
7
  6
CONTINUOUS
 10
-85.8936147265
 20
238.2055668582
 11
-85.7313276794
 21
237.9831054647
  0
LINE
  8
0
 62
7
  6
CONTINUOUS
 10
-86.057163085
 20
238.4320018889
 11
-85.8936147265
 21
238.2055668582
  0
POLYLINE
  8
0
 62
7
  6
CONTINUOUS
 66
1
 70
0
  0
VERTEX
  8
0
 62
7
  6
CONTINUOUS
 10
-86.2771116145
 20
-101.7921627199
  0
VERTEX
  8
0
 62
7
  6
CONTINUOUS
 10
-86.4081977032
 20
-101.9781149893
  0
VERTEX
  8
0
 62
7
  6
CONTINUOUS
 10
-86.5536090325
 20
-102.1863952694
  0
VERTEX
  8
0
 62
7
  6
CONTINUOUS
 10
-86.7130458731
 20
-102.4174493505
  0
VERTEX
  8
0
 62
7
  6
CONTINUOUS
 10
-86.8862827008
 20
-102.6718658941
  0
VERTEX
  8
0
 62
7
  6
CONTINUOUS
 10
-87.0727363615
 20
-102.9499903641
  0
VERTEX
  8
0
 62
7
  6
CONTINUOUS
 10
-87.2720078728
 20
-103.25263869
  0
VERTEX
  8
0
 62
7
  6
CONTINUOUS
 10
-87.48256578
 20
-103.5789881368
  0
VERTEX
  8
0
 62
7
  6
CONTINUOUS
 10
-87.7029143638
 20
-103.9288356788
  0
VERTEX
  8
0
 62
7
  6
CONTINUOUS
 10
-87.9311256022
 20
-104.3011381186
  0
VERTEX
  8
0
 62
7
  6
CONTINUOUS
 10
-88.1655807368
 20
-104.6962153062
  0
VERTEX
  8
0
 62
7
  6
CONTINUOUS
 10
-88.4025181044
 20
-105.1097750742
  0
VERTEX
  8
0
 62
7
  6
CONTINUOUS
 10
-88.6380664455
 20
-105.5390087712
  0
VERTEX
  8
0
 62
7
  6
CONTINUOUS
 10
-88.8689564651
 20
-105.9797856999
  0
VERTEX
  8
0
 62
7
  6
CONTINUOUS
 10
-89.0910529088
 20
-106.4280286366
  0
VERTEX
  8
0
 62
7
  6
CONTINUOUS
 10
-89.3021210538
 20
-106.8807685091
  0
VERTEX
  8
0
 62
7
  6
CONTINUOUS
 10
-89.4991266897
 20
-107.3345973086
  0
VERTEX
  8
0
 62
7
  6
CONTINUOUS
 10
-89.6805581311
 20
-107.7867546219
  0
VERTEX
  8
0
 62
7
  6
CONTINUOUS
 10
-89.8441209123
 20
-108.2331977438
  0
VERTEX
  8
0
 62
7
  6
CONTINUOUS
 10
-89.9899294231
 20
-108.6743655419
  0
VERTEX
  8
0
 62
7
  6
CONTINUOUS
 10
-90.117627084
 20
-109.1088700201
  0
VERTEX
  8
0
 62
7
  6
CONTINUOUS
 10
-90.227498567
 20
-109.5381490639
  0
VERTEX
  8
0
 62
7
  6
CONTINUOUS
 10
-90.3200635733
 20
-109.9632446114
  0
VERTEX
  8
0
 62
7
  6
CONTINUOUS
 10
-90.3952206094
 20
-110.3839565074
  0
VERTEX
  8
0
 62
7
  6
CONTINUOUS
 10
-90.4531963688
 20
-110.8002131963
  0
VERTEX
  8
0
 62
7
  6
CONTINUOUS
 10
-90.4941889665
 20
-111.2126708177
  0
VERTEX
  8
0
 62
7
  6
CONTINUOUS
 10
-90.5186311186
 20
-111.6212674338
  0
VERTEX
  8
0
 62
7
  6
CONTINUOUS
 10
-90.5265687136
 20
-112.0280857217
  0
VERTEX
  8
0
 62
7
  6
CONTINUOUS
 10
-90.5184847559
 20
-112.4345951029
  0
VERTEX
  8
0
 62
7
  6
CONTINUOUS
 10
-90.4939274395
 20
-112.8425734067
  0
VERTEX
  8
0
 62
7
  6
CONTINUOUS
 10
-90.4528992115
 20
-113.2542849846
  0
VERTEX
  8
0
 62
7
  6
CONTINUOUS
 10
-90.3949446493
 20
-113.6697396912
  0
VERTEX
  8
0
 62
7
  6
CONTINUOUS
 10
-90.3198731687
 20
-114.0897019714
  0
VERTEX
  8
0
 62
7
  6
CONTINUOUS
 10
-90.2274131593
 20
-114.5141724051
  0
VERTEX
  8
0
 62
7
  6
CONTINUOUS
 10
-90.1176284967
 20
-114.9430823496
  0
VERTEX
  8
0
 62
7
  6
CONTINUOUS
 10
-89.9899892644
 20
-115.3774039169
  0
VERTEX
  8
0
 62
7
  6
CONTINUOUS
 10
-89.8441771943
 20
-115.8185875478
  0
VERTEX
  8
0
 62
7
  6
CONTINUOUS
 10
-89.6805876454
 20
-116.2651296127
  0
VERTEX
  8
0
 62
7
  6
CONTINUOUS
 10
-89.4991384981
 20
-116.7173375417
  0
VERTEX
  8
0
 62
7
  6
CONTINUOUS
 10
-89.3021048468
 20
-117.1712285965
  0
VERTEX
  8
0
 62
7
  6
CONTINUOUS
 10
-89.0909674953
 20
-117.6240990982
  0
VERTEX
  8
0
 62
7
  6
CONTINUOUS
 10
-88.8688320921
 20
-118.0724192985
  0
VERTEX
  8
0
 62
7
  6
CONTINUOUS
 10
-88.6380257382
 20
-118.5130434464
  0
VERTEX
  8
0
 62
7
  6
CONTINUOUS
 10
-88.4025574955
 20
-118.9421158711
  0
VERTEX
  8
0
 62
7
  6
CONTINUOUS
 10
-88.1655977762
 20
-119.3557119324
  0
VERTEX
  8
0
 62
7
  6
CONTINUOUS
 10
-87.9310834675
 20
-119.7508927883
  0
VERTEX
  8
0
 62
7
  6
CONTINUOUS
 10
-87.7027946569
 20
-120.1233138795
  0
VERTEX
  8
0
 62
7
  6
CONTINUOUS
 10
-87.4823777733
 20
-120.4732677171
  0
VERTEX
  8
0
 62
7
  6
CONTINUOUS
 10
-87.2717921992
 20
-120.7996542127
  0
VERTEX
  8
0
 62
7
  6
CONTINUOUS
 10
-87.0725130844
 20
-121.1023066059
  0
VERTEX
  8
0
 62
7
  6
CONTINUOUS
 10
-86.8860672132
 20
-121.3804155313
  0
VERTEX
  8
0
 62
7
  6
CONTINUOUS
 10
-86.7128422419
 20
-121.6348087165
  0
VERTEX
  8
0
 62
7
  6
CONTINUOUS
 10
-86.5534066206
 20
-121.8658554116
  0
VERTEX
  8
0
 62
7
  6
CONTINUOUS
 10
-86.4080043105
 20
-122.0741216845
  0
VERTEX
  8
0
 62
7
  6
CONTINUOUS
 10
-86.2769474761
 20
-122.2600315031
  0
VERTEX
  8
0
 62
7
  6
CONTINUOUS
 10
-86.057163085
 20
-122.5679981111
  0
SEQEND
  0
LINE
  8
0
 62
7
  6
CONTINUOUS
 10
-85.724607958
 20
43.9740194371
 11
454.275392042
 21
43.9740194371
  0
LINE
  8
0
 62
7
  6
CONTINUOUS
 10
454.275392042
 20
65.9740194371
 11
-85.724607958
 21
65.9740194371
  0
LINE
  8
0
 62
7
  6
CONTINUOUS
 10
454.9587883944
 20
599.9258783155
 11
454.7108213467
 21
599.5756195824
  0
LINE
  8
0
 62
7
  6
CONTINUOUS
 10
-86.0572652062
 20
-101.4841055068
 11
-86.2771116145
 21
-101.7921627199
  0
LINE
  8
0
 62
7
  6
CONTINUOUS
 10
454.7108213467
 20
599.5756195824
 11
454.5191378805
 21
599.3087938474
  0
LINE
  8
0
 62
7
  6
CONTINUOUS
 10
-85.8936734009
 20
-101.2576074292
 11
-86.0572652062
 21
-101.4841055068
  0
POLYLINE
  8
0
 62
7
  6
CONTINUOUS
 66
1
 70
0
  0
VERTEX
  8
0
 62
7
  6
CONTINUOUS
 10
454.5191378805
 20
599.3087938474
  0
VERTEX
  8
0
 62
7
  6
CONTINUOUS
 10
454.33607488
 20
599.0568996437
  0
VERTEX
  8
0
 62
7
  6
CONTINUOUS
 10
454.2821117633
 20
598.9831054647
  0
SEQEND
  0
LINE
  8
0
 62
7
  6
CONTINUOUS
 10
-85.7313289652
 20
-101.0350665761
 11
-85.8936734009
 21
-101.2576074292
  0
LINE
  8
0
 62
7
  6
CONTINUOUS
 10
-85.724607958
 20
-101.0259805629
 11
-85.7313289652
 21
-101.0350665761
  0
LINE
  8
0
 62
7
  6
CONTINUOUS
 10
454.2821117633
 20
598.9831054647
 11
454.275392042
 21
598.9740194371
  0
LINE
  8
0
 62
7
  6
CONTINUOUS
 10
454.275392042
 20
-295.0259805629
 11
454.2821130491
 21
-295.0350665761
  0
LINE
  8
0
 62
7
  6
CONTINUOUS
 10
-85.7313276794
 20
404.9831054647
 11
-85.724607958
 21
404.9740194371
  0
LINE
  8
0
 62
7
  6
CONTINUOUS
 10
-85.8936147265
 20
405.2055668582
 11
-85.7313276794
 21
404.9831054647
  0
LINE
  8
0
 62
7
  6
CONTINUOUS
 10
454.2821130491
 20
-295.0350665761
 11
454.4444574848
 21
-295.2576074292
  0
LINE
  8
0
 62
7
  6
CONTINUOUS
 10
-86.057163085
 20
405.4320018889
 11
-85.8936147265
 21
405.2055668582
  0
LINE
  8
0
 62
7
  6
CONTINUOUS
 10
454.4444574848
 20
-295.2576074292
 11
454.6080492901
 21
-295.4841055068
  0
POLYLINE
  8
0
 62
7
  6
CONTINUOUS
 66
1
 70
0
  0
VERTEX
  8
0
 62
7
  6
CONTINUOUS
 10
454.6080492901
 20
-295.4841055068
  0
VERTEX
  8
0
 62
7
  6
CONTINUOUS
 10
454.8278956984
 20
-295.7921627199
  0
VERTEX
  8
0
 62
7
  6
CONTINUOUS
 10
454.9589817871
 20
-295.9781149893
  0
VERTEX
  8
0
 62
7
  6
CONTINUOUS
 10
455.1043931164
 20
-296.1863952694
  0
VERTEX
  8
0
 62
7
  6
CONTINUOUS
 10
455.263829957
 20
-296.4174493505
  0
VERTEX
  8
0
 62
7
  6
CONTINUOUS
 10
455.4370667847
 20
-296.6718658941
  0
VERTEX
  8
0
 62
7
  6
CONTINUOUS
 10
455.6235204454
 20
-296.9499903641
  0
VERTEX
  8
0
 62
7
  6
CONTINUOUS
 10
455.8227919567
 20
-297.25263869
  0
VERTEX
  8
0
 62
7
  6
CONTINUOUS
 10
456.0333498639
 20
-297.5789881368
  0
VERTEX
  8
0
 62
7
  6
CONTINUOUS
 10
456.2536984477
 20
-297.9288356788
  0
VERTEX
  8
0
 62
7
  6
CONTINUOUS
 10
456.4819096861
 20
-298.3011381186
  0
VERTEX
  8
0
 62
7
  6
CONTINUOUS
 10
456.7163648207
 20
-298.6962153062
  0
VERTEX
  8
0
 62
7
  6
CONTINUOUS
 10
456.9533021883
 20
-299.1097750742
  0
VERTEX
  8
0
 62
7
  6
CONTINUOUS
 10
457.1888505294
 20
-299.5390087712
  0
VERTEX
  8
0
 62
7
  6
CONTINUOUS
 10
457.419740549
 20
-299.9797856999
  0
VERTEX
  8
0
 62
7
  6
CONTINUOUS
 10
457.6418369927
 20
-300.4280286366
  0
VERTEX
  8
0
 62
7
  6
CONTINUOUS
 10
457.8529051377
 20
-300.8807685091
  0
VERTEX
  8
0
 62
7
  6
CONTINUOUS
 10
458.0499107736
 20
-301.3345973086
  0
VERTEX
  8
0
 62
7
  6
CONTINUOUS
 10
458.231342215
 20
-301.7867546219
  0
VERTEX
  8
0
 62
7
  6
CONTINUOUS
 10
458.3949049962
 20
-302.2331977438
  0
VERTEX
  8
0
 62
7
  6
CONTINUOUS
 10
458.540713507
 20
-302.6743655419
  0
VERTEX
  8
0
 62
7
  6
CONTINUOUS
 10
458.6684111679
 20
-303.1088700201
  0
VERTEX
  8
0
 62
7
  6
CONTINUOUS
 10
458.7782826509
 20
-303.5381490639
  0
VERTEX
  8
0
 62
7
  6
CONTINUOUS
 10
458.8708476572
 20
-303.9632446114
  0
VERTEX
  8
0
 62
7
  6
CONTINUOUS
 10
458.9460046933
 20
-304.3839565074
  0
VERTEX
  8
0
 62
7
  6
CONTINUOUS
 10
459.0039804527
 20
-304.8002131963
  0
VERTEX
  8
0
 62
7
  6
CONTINUOUS
 10
459.0449730505
 20
-305.2126708177
  0
VERTEX
  8
0
 62
7
  6
CONTINUOUS
 10
459.0694152025
 20
-305.6212674338
  0
VERTEX
  8
0
 62
7
  6
CONTINUOUS
 10
459.0773527975
 20
-306.0280857217
  0
VERTEX
  8
0
 62
7
  6
CONTINUOUS
 10
459.0692688398
 20
-306.4345951029
  0
VERTEX
  8
0
 62
7
  6
CONTINUOUS
 10
459.0447115234
 20
-306.8425734067
  0
VERTEX
  8
0
 62
7
  6
CONTINUOUS
 10
459.0036832954
 20
-307.2542849846
  0
VERTEX
  8
0
 62
7
  6
CONTINUOUS
 10
458.9457287332
 20
-307.6697396912
  0
VERTEX
  8
0
 62
7
  6
CONTINUOUS
 10
458.8706572526
 20
-308.0897019714
  0
VERTEX
  8
0
 62
7
  6
CONTINUOUS
 10
458.7781972432
 20
-308.5141724051
  0
VERTEX
  8
0
 62
7
  6
CONTINUOUS
 10
458.6684125806
 20
-308.9430823496
  0
VERTEX
  8
0
 62
7
  6
CONTINUOUS
 10
458.5407733483
 20
-309.3774039169
  0
VERTEX
  8
0
 62
7
  6
CONTINUOUS
 10
458.3949612782
 20
-309.8185875478
  0
VERTEX
  8
0
 62
7
  6
CONTINUOUS
 10
458.2313717293
 20
-310.2651296127
  0
VERTEX
  8
0
 62
7
  6
CONTINUOUS
 10
458.049922582
 20
-310.7173375417
  0
VERTEX
  8
0
 62
7
  6
CONTINUOUS
 10
457.8528889307
 20
-311.1712285965
  0
VERTEX
  8
0
 62
7
  6
CONTINUOUS
 10
457.6417515792
 20
-311.6240990982
  0
VERTEX
  8
0
 62
7
  6
CONTINUOUS
 10
457.419616176
 20
-312.0724192985
  0
VERTEX
  8
0
 62
7
  6
CONTINUOUS
 10
457.1888098221
 20
-312.5130434464
  0
VERTEX
  8
0
 62
7
  6
CONTINUOUS
 10
456.9533415794
 20
-312.9421158711
  0
VERTEX
  8
0
 62
7
  6
CONTINUOUS
 10
456.7163818601
 20
-313.3557119324
  0
VERTEX
  8
0
 62
7
  6
CONTINUOUS
 10
456.4818675514
 20
-313.7508927883
  0
VERTEX
  8
0
 62
7
  6
CONTINUOUS
 10
456.2535787408
 20
-314.1233138795
  0
VERTEX
  8
0
 62
7
  6
CONTINUOUS
 10
456.0331618572
 20
-314.4732677171
  0
VERTEX
  8
0
 62
7
  6
CONTINUOUS
 10
455.8225762831
 20
-314.7996542127
  0
VERTEX
  8
0
 62
7
  6
CONTINUOUS
 10
455.6232971683
 20
-315.1023066059
  0
VERTEX
  8
0
 62
7
  6
CONTINUOUS
 10
455.4368512971
 20
-315.3804155313
  0
VERTEX
  8
0
 62
7
  6
CONTINUOUS
 10
455.2636263258
 20
-315.6348087165
  0
VERTEX
  8
0
 62
7
  6
CONTINUOUS
 10
455.1041907045
 20
-315.8658554116
  0
VERTEX
  8
0
 62
7
  6
CONTINUOUS
 10
454.9587883944
 20
-316.0741216845
  0
SEQEND
  0
POLYLINE
  8
0
 62
7
  6
CONTINUOUS
 66
1
 70
0
  0
VERTEX
  8
0
 62
7
  6
CONTINUOUS
 10
-86.4081977032
 20
-198.9781149893
  0
VERTEX
  8
0
 62
7
  6
CONTINUOUS
 10
-86.5536090325
 20
-199.1863952694
  0
VERTEX
  8
0
 62
7
  6
CONTINUOUS
 10
-86.7130458731
 20
-199.4174493505
  0
VERTEX
  8
0
 62
7
  6
CONTINUOUS
 10
-86.8862827008
 20
-199.6718658941
  0
VERTEX
  8
0
 62
7
  6
CONTINUOUS
 10
-87.0727363615
 20
-199.9499903641
  0
VERTEX
  8
0
 62
7
  6
CONTINUOUS
 10
-87.2720078728
 20
-200.25263869
  0
VERTEX
  8
0
 62
7
  6
CONTINUOUS
 10
-87.48256578
 20
-200.5789881368
  0
VERTEX
  8
0
 62
7
  6
CONTINUOUS
 10
-87.7029143638
 20
-200.9288356788
  0
VERTEX
  8
0
 62
7
  6
CONTINUOUS
 10
-87.9311256022
 20
-201.3011381186
  0
VERTEX
  8
0
 62
7
  6
CONTINUOUS
 10
-88.1655807368
 20
-201.6962153062
  0
VERTEX
  8
0
 62
7
  6
CONTINUOUS
 10
-88.4025181044
 20
-202.1097750742
  0
VERTEX
  8
0
 62
7
  6
CONTINUOUS
 10
-88.6380664455
 20
-202.5390087712
  0
VERTEX
  8
0
 62
7
  6
CONTINUOUS
 10
-88.8689564651
 20
-202.9797856999
  0
VERTEX
  8
0
 62
7
  6
CONTINUOUS
 10
-89.0910529088
 20
-203.4280286366
  0
VERTEX
  8
0
 62
7
  6
CONTINUOUS
 10
-89.3021210538
 20
-203.8807685091
  0
VERTEX
  8
0
 62
7
  6
CONTINUOUS
 10
-89.4991266897
 20
-204.3345973086
  0
VERTEX
  8
0
 62
7
  6
CONTINUOUS
 10
-89.6805581311
 20
-204.7867546219
  0
VERTEX
  8
0
 62
7
  6
CONTINUOUS
 10
-89.8441209123
 20
-205.2331977438
  0
VERTEX
  8
0
 62
7
  6
CONTINUOUS
 10
-89.9899294231
 20
-205.6743655419
  0
VERTEX
  8
0
 62
7
  6
CONTINUOUS
 10
-90.117627084
 20
-206.1088700201
  0
VERTEX
  8
0
 62
7
  6
CONTINUOUS
 10
-90.227498567
 20
-206.5381490639
  0
VERTEX
  8
0
 62
7
  6
CONTINUOUS
 10
-90.3200635733
 20
-206.9632446114
  0
VERTEX
  8
0
 62
7
  6
CONTINUOUS
 10
-90.3952206094
 20
-207.3839565074
  0
VERTEX
  8
0
 62
7
  6
CONTINUOUS
 10
-90.4531963688
 20
-207.8002131963
  0
VERTEX
  8
0
 62
7
  6
CONTINUOUS
 10
-90.4941889665
 20
-208.2126708177
  0
VERTEX
  8
0
 62
7
  6
CONTINUOUS
 10
-90.5186311186
 20
-208.6212674338
  0
VERTEX
  8
0
 62
7
  6
CONTINUOUS
 10
-90.5265687136
 20
-209.0280857217
  0
VERTEX
  8
0
 62
7
  6
CONTINUOUS
 10
-90.5184847559
 20
-209.4345951029
  0
VERTEX
  8
0
 62
7
  6
CONTINUOUS
 10
-90.4939274395
 20
-209.8425734067
  0
VERTEX
  8
0
 62
7
  6
CONTINUOUS
 10
-90.4528992115
 20
-210.2542849846
  0
VERTEX
  8
0
 62
7
  6
CONTINUOUS
 10
-90.3949446493
 20
-210.6697396912
  0
VERTEX
  8
0
 62
7
  6
CONTINUOUS
 10
-90.3198731687
 20
-211.0897019714
  0
VERTEX
  8
0
 62
7
  6
CONTINUOUS
 10
-90.2274131593
 20
-211.5141724051
  0
VERTEX
  8
0
 62
7
  6
CONTINUOUS
 10
-90.1176284967
 20
-211.9430823496
  0
VERTEX
  8
0
 62
7
  6
CONTINUOUS
 10
-89.9899892644
 20
-212.3774039169
  0
VERTEX
  8
0
 62
7
  6
CONTINUOUS
 10
-89.8441771943
 20
-212.8185875478
  0
VERTEX
  8
0
 62
7
  6
CONTINUOUS
 10
-89.6805876454
 20
-213.2651296127
  0
VERTEX
  8
0
 62
7
  6
CONTINUOUS
 10
-89.4991384981
 20
-213.7173375417
  0
VERTEX
  8
0
 62
7
  6
CONTINUOUS
 10
-89.3021048468
 20
-214.1712285965
  0
VERTEX
  8
0
 62
7
  6
CONTINUOUS
 10
-89.0909674953
 20
-214.6240990982
  0
VERTEX
  8
0
 62
7
  6
CONTINUOUS
 10
-88.8688320921
 20
-215.0724192985
  0
VERTEX
  8
0
 62
7
  6
CONTINUOUS
 10
-88.6380257382
 20
-215.5130434464
  0
VERTEX
  8
0
 62
7
  6
CONTINUOUS
 10
-88.4025574955
 20
-215.9421158711
  0
VERTEX
  8
0
 62
7
  6
CONTINUOUS
 10
-88.1655977762
 20
-216.3557119324
  0
VERTEX
  8
0
 62
7
  6
CONTINUOUS
 10
-87.9310834675
 20
-216.7508927883
  0
VERTEX
  8
0
 62
7
  6
CONTINUOUS
 10
-87.7027946569
 20
-217.1233138795
  0
VERTEX
  8
0
 62
7
  6
CONTINUOUS
 10
-87.4823777733
 20
-217.4732677171
  0
VERTEX
  8
0
 62
7
  6
CONTINUOUS
 10
-87.2717921992
 20
-217.7996542127
  0
VERTEX
  8
0
 62
7
  6
CONTINUOUS
 10
-87.0725130844
 20
-218.1023066059
  0
VERTEX
  8
0
 62
7
  6
CONTINUOUS
 10
-86.8860672132
 20
-218.3804155313
  0
VERTEX
  8
0
 62
7
  6
CONTINUOUS
 10
-86.7128422419
 20
-218.6348087165
  0
VERTEX
  8
0
 62
7
  6
CONTINUOUS
 10
-86.5534066206
 20
-218.8658554116
  0
VERTEX
  8
0
 62
7
  6
CONTINUOUS
 10
-86.4080043105
 20
-219.0741216845
  0
VERTEX
  8
0
 62
7
  6
CONTINUOUS
 10
-86.2769474761
 20
-219.2600315031
  0
VERTEX
  8
0
 62
7
  6
CONTINUOUS
 10
-86.057163085
 20
-219.5679981111
  0
SEQEND
  0
LINE
  8
0
 62
7
  6
CONTINUOUS
 10
-86.1601683967
 20
-198.6277643824
 11
-86.4081977032
 21
-198.9781149893
  0
LINE
  8
0
 62
7
  6
CONTINUOUS
 10
-85.9684307729
 20
-198.3608614769
 11
-86.1601683967
 21
-198.6277643824
  0
POLYLINE
  8
0
 62
7
  6
CONTINUOUS
 66
1
 70
0
  0
VERTEX
  8
0
 62
7
  6
CONTINUOUS
 10
-85.7313289652
 20
-198.0350665761
  0
VERTEX
  8
0
 62
7
  6
CONTINUOUS
 10
-85.785311434
 20
-198.1088909695
  0
VERTEX
  8
0
 62
7
  6
CONTINUOUS
 10
-85.9684307729
 20
-198.3608614769
  0
SEQEND
  0
LINE
  8
0
 62
7
  6
CONTINUOUS
 10
-85.724607958
 20
-198.0259805629
 11
-85.7313289652
 21
-198.0350665761
  0
LINE
  8
0
 62
7
  6
CONTINUOUS
 10
-85.724607958
 20
140.9740194371
 11
454.275392042
 21
140.9740194371
  0
LINE
  8
0
 62
7
  6
CONTINUOUS
 10
-85.7313276794
 20
501.9831054647
 11
-85.724607958
 21
501.9740194371
  0
LINE
  8
0
 62
7
  6
CONTINUOUS
 10
-85.8936147265
 20
502.2055668582
 11
-85.7313276794
 21
501.9831054647
  0
LINE
  8
0
 62
7
  6
CONTINUOUS
 10
-86.057163085
 20
502.4320018889
 11
-85.8936147265
 21
502.2055668582
  0
POLYLINE
  8
0
 62
7
  6
CONTINUOUS
 66
1
 70
0
  0
VERTEX
  8
0
 62
7
  6
CONTINUOUS
 10
-86.4081977032
 20
-295.9781149893
  0
VERTEX
  8
0
 62
7
  6
CONTINUOUS
 10
-86.5536090325
 20
-296.1863952694
  0
VERTEX
  8
0
 62
7
  6
CONTINUOUS
 10
-86.7130458731
 20
-296.4174493505
  0
VERTEX
  8
0
 62
7
  6
CONTINUOUS
 10
-86.8862827008
 20
-296.6718658941
  0
VERTEX
  8
0
 62
7
  6
CONTINUOUS
 10
-87.0727363615
 20
-296.9499903641
  0
VERTEX
  8
0
 62
7
  6
CONTINUOUS
 10
-87.2720078728
 20
-297.25263869
  0
VERTEX
  8
0
 62
7
  6
CONTINUOUS
 10
-87.48256578
 20
-297.5789881368
  0
VERTEX
  8
0
 62
7
  6
CONTINUOUS
 10
-87.7029143638
 20
-297.9288356788
  0
VERTEX
  8
0
 62
7
  6
CONTINUOUS
 10
-87.9311256022
 20
-298.3011381186
  0
VERTEX
  8
0
 62
7
  6
CONTINUOUS
 10
-88.1655807368
 20
-298.6962153062
  0
VERTEX
  8
0
 62
7
  6
CONTINUOUS
 10
-88.4025181044
 20
-299.1097750742
  0
VERTEX
  8
0
 62
7
  6
CONTINUOUS
 10
-88.6380664455
 20
-299.5390087712
  0
VERTEX
  8
0
 62
7
  6
CONTINUOUS
 10
-88.8689564651
 20
-299.9797856999
  0
VERTEX
  8
0
 62
7
  6
CONTINUOUS
 10
-89.0910529088
 20
-300.4280286366
  0
VERTEX
  8
0
 62
7
  6
CONTINUOUS
 10
-89.3021210538
 20
-300.8807685091
  0
VERTEX
  8
0
 62
7
  6
CONTINUOUS
 10
-89.4991266897
 20
-301.3345973086
  0
VERTEX
  8
0
 62
7
  6
CONTINUOUS
 10
-89.6805581311
 20
-301.7867546219
  0
VERTEX
  8
0
 62
7
  6
CONTINUOUS
 10
-89.8441209123
 20
-302.2331977438
  0
VERTEX
  8
0
 62
7
  6
CONTINUOUS
 10
-89.9899294231
 20
-302.6743655419
  0
VERTEX
  8
0
 62
7
  6
CONTINUOUS
 10
-90.117627084
 20
-303.1088700201
  0
VERTEX
  8
0
 62
7
  6
CONTINUOUS
 10
-90.227498567
 20
-303.5381490639
  0
VERTEX
  8
0
 62
7
  6
CONTINUOUS
 10
-90.3200635733
 20
-303.9632446114
  0
VERTEX
  8
0
 62
7
  6
CONTINUOUS
 10
-90.3952206094
 20
-304.3839565074
  0
VERTEX
  8
0
 62
7
  6
CONTINUOUS
 10
-90.4531963688
 20
-304.8002131963
  0
VERTEX
  8
0
 62
7
  6
CONTINUOUS
 10
-90.4941889665
 20
-305.2126708177
  0
VERTEX
  8
0
 62
7
  6
CONTINUOUS
 10
-90.5186311186
 20
-305.6212674338
  0
VERTEX
  8
0
 62
7
  6
CONTINUOUS
 10
-90.5265687136
 20
-306.0280857217
  0
VERTEX
  8
0
 62
7
  6
CONTINUOUS
 10
-90.5184847559
 20
-306.4345951029
  0
VERTEX
  8
0
 62
7
  6
CONTINUOUS
 10
-90.4939274395
 20
-306.8425734067
  0
VERTEX
  8
0
 62
7
  6
CONTINUOUS
 10
-90.4528992115
 20
-307.2542849846
  0
VERTEX
  8
0
 62
7
  6
CONTINUOUS
 10
-90.3949446493
 20
-307.6697396912
  0
VERTEX
  8
0
 62
7
  6
CONTINUOUS
 10
-90.3198731687
 20
-308.0897019714
  0
VERTEX
  8
0
 62
7
  6
CONTINUOUS
 10
-90.2274131593
 20
-308.5141724051
  0
VERTEX
  8
0
 62
7
  6
CONTINUOUS
 10
-90.1176284967
 20
-308.9430823496
  0
VERTEX
  8
0
 62
7
  6
CONTINUOUS
 10
-89.9899892644
 20
-309.3774039169
  0
VERTEX
  8
0
 62
7
  6
CONTINUOUS
 10
-89.8441771943
 20
-309.8185875478
  0
VERTEX
  8
0
 62
7
  6
CONTINUOUS
 10
-89.6805876454
 20
-310.2651296127
  0
VERTEX
  8
0
 62
7
  6
CONTINUOUS
 10
-89.4991384981
 20
-310.7173375417
  0
VERTEX
  8
0
 62
7
  6
CONTINUOUS
 10
-89.3021048468
 20
-311.1712285965
  0
VERTEX
  8
0
 62
7
  6
CONTINUOUS
 10
-89.0909674953
 20
-311.6240990982
  0
VERTEX
  8
0
 62
7
  6
CONTINUOUS
 10
-88.8688320921
 20
-312.0724192985
  0
VERTEX
  8
0
 62
7
  6
CONTINUOUS
 10
-88.6380257382
 20
-312.5130434464
  0
VERTEX
  8
0
 62
7
  6
CONTINUOUS
 10
-88.4025574955
 20
-312.9421158711
  0
VERTEX
  8
0
 62
7
  6
CONTINUOUS
 10
-88.1655977762
 20
-313.3557119324
  0
VERTEX
  8
0
 62
7
  6
CONTINUOUS
 10
-87.9310834675
 20
-313.7508927883
  0
VERTEX
  8
0
 62
7
  6
CONTINUOUS
 10
-87.7027946569
 20
-314.1233138795
  0
VERTEX
  8
0
 62
7
  6
CONTINUOUS
 10
-87.4823777733
 20
-314.4732677171
  0
VERTEX
  8
0
 62
7
  6
CONTINUOUS
 10
-87.2717921992
 20
-314.7996542127
  0
VERTEX
  8
0
 62
7
  6
CONTINUOUS
 10
-87.0725130844
 20
-315.1023066059
  0
VERTEX
  8
0
 62
7
  6
CONTINUOUS
 10
-86.8860672132
 20
-315.3804155313
  0
VERTEX
  8
0
 62
7
  6
CONTINUOUS
 10
-86.7128422419
 20
-315.6348087165
  0
VERTEX
  8
0
 62
7
  6
CONTINUOUS
 10
-86.5534066206
 20
-315.8658554116
  0
VERTEX
  8
0
 62
7
  6
CONTINUOUS
 10
-86.4080043105
 20
-316.0741216845
  0
VERTEX
  8
0
 62
7
  6
CONTINUOUS
 10
-86.2769474761
 20
-316.2600315031
  0
VERTEX
  8
0
 62
7
  6
CONTINUOUS
 10
-86.057163085
 20
-316.5679981111
  0
SEQEND
  0
LINE
  8
0
 62
7
  6
CONTINUOUS
 10
454.9587883944
 20
502.9258783155
 11
454.7108213467
 21
502.5756195824
  0
LINE
  8
0
 62
7
  6
CONTINUOUS
 10
-86.1601683967
 20
-295.6277643824
 11
-86.4081977032
 21
-295.9781149893
  0
LINE
  8
0
 62
7
  6
CONTINUOUS
 10
454.7108213467
 20
502.5756195824
 11
454.5191378805
 21
502.3087938474
  0
LINE
  8
0
 62
7
  6
CONTINUOUS
 10
-85.9684307729
 20
-295.3608614769
 11
-86.1601683967
 21
-295.6277643824
  0
LINE
  8
0
 62
7
  6
CONTINUOUS
 10
-85.8326913669
 20
-295.1738296353
 11
-85.9684307729
 21
-295.3608614769
  0
POLYLINE
  8
0
 62
7
  6
CONTINUOUS
 66
1
 70
0
  0
VERTEX
  8
0
 62
7
  6
CONTINUOUS
 10
454.5191378805
 20
502.3087938474
  0
VERTEX
  8
0
 62
7
  6
CONTINUOUS
 10
454.33607488
 20
502.0568996437
  0
VERTEX
  8
0
 62
7
  6
CONTINUOUS
 10
454.2821117633
 20
501.9831054647
  0
SEQEND
  0
LINE
  8
0
 62
7
  6
CONTINUOUS
 10
454.2821117633
 20
501.9831054647
 11
454.275392042
 21
501.9740194371
  0
LINE
  8
0
 62
7
  6
CONTINUOUS
 10
454.275392042
 20
162.9740194371
 11
-85.724607958
 21
162.9740194371
  0
LINE
  8
0
 62
7
  6
CONTINUOUS
 10
454.275392042
 20
-198.0259805629
 11
454.2821130491
 21
-198.0350665761
  0
LINE
  8
0
 62
7
  6
CONTINUOUS
 10
454.2821130491
 20
-198.0350665761
 11
454.4444574848
 21
-198.2576074292
  0
LINE
  8
0
 62
7
  6
CONTINUOUS
 10
-85.9683537966
 20
599.3087938474
 11
-85.8326504279
 21
599.1218123307
  0
LINE
  8
0
 62
7
  6
CONTINUOUS
 10
454.4444574848
 20
-198.2576074292
 11
454.6080492901
 21
-198.4841055068
  0
LINE
  8
0
 62
7
  6
CONTINUOUS
 10
-86.1600372628
 20
599.5756195824
 11
-85.9683537966
 21
599.3087938474
  0
POLYLINE
  8
0
 62
7
  6
CONTINUOUS
 66
1
 70
0
  0
VERTEX
  8
0
 62
7
  6
CONTINUOUS
 10
454.6080492901
 20
-198.4841055068
  0
VERTEX
  8
0
 62
7
  6
CONTINUOUS
 10
454.8278956984
 20
-198.7921627199
  0
VERTEX
  8
0
 62
7
  6
CONTINUOUS
 10
454.9589817871
 20
-198.9781149893
  0
VERTEX
  8
0
 62
7
  6
CONTINUOUS
 10
455.1043931164
 20
-199.1863952694
  0
VERTEX
  8
0
 62
7
  6
CONTINUOUS
 10
455.263829957
 20
-199.4174493505
  0
VERTEX
  8
0
 62
7
  6
CONTINUOUS
 10
455.4370667847
 20
-199.6718658941
  0
VERTEX
  8
0
 62
7
  6
CONTINUOUS
 10
455.6235204454
 20
-199.9499903641
  0
VERTEX
  8
0
 62
7
  6
CONTINUOUS
 10
455.8227919567
 20
-200.25263869
  0
VERTEX
  8
0
 62
7
  6
CONTINUOUS
 10
456.0333498639
 20
-200.5789881368
  0
VERTEX
  8
0
 62
7
  6
CONTINUOUS
 10
456.2536984477
 20
-200.9288356788
  0
VERTEX
  8
0
 62
7
  6
CONTINUOUS
 10
456.4819096861
 20
-201.3011381186
  0
VERTEX
  8
0
 62
7
  6
CONTINUOUS
 10
456.7163648207
 20
-201.6962153062
  0
VERTEX
  8
0
 62
7
  6
CONTINUOUS
 10
456.9533021883
 20
-202.1097750742
  0
VERTEX
  8
0
 62
7
  6
CONTINUOUS
 10
457.1888505294
 20
-202.5390087712
  0
VERTEX
  8
0
 62
7
  6
CONTINUOUS
 10
457.419740549
 20
-202.9797856999
  0
VERTEX
  8
0
 62
7
  6
CONTINUOUS
 10
457.6418369927
 20
-203.4280286366
  0
VERTEX
  8
0
 62
7
  6
CONTINUOUS
 10
457.8529051377
 20
-203.8807685091
  0
VERTEX
  8
0
 62
7
  6
CONTINUOUS
 10
458.0499107736
 20
-204.3345973086
  0
VERTEX
  8
0
 62
7
  6
CONTINUOUS
 10
458.231342215
 20
-204.7867546219
  0
VERTEX
  8
0
 62
7
  6
CONTINUOUS
 10
458.3949049962
 20
-205.2331977438
  0
VERTEX
  8
0
 62
7
  6
CONTINUOUS
 10
458.540713507
 20
-205.6743655419
  0
VERTEX
  8
0
 62
7
  6
CONTINUOUS
 10
458.6684111679
 20
-206.1088700201
  0
VERTEX
  8
0
 62
7
  6
CONTINUOUS
 10
458.7782826509
 20
-206.5381490639
  0
VERTEX
  8
0
 62
7
  6
CONTINUOUS
 10
458.8708476572
 20
-206.9632446114
  0
VERTEX
  8
0
 62
7
  6
CONTINUOUS
 10
458.9460046933
 20
-207.3839565074
  0
VERTEX
  8
0
 62
7
  6
CONTINUOUS
 10
459.0039804527
 20
-207.8002131963
  0
VERTEX
  8
0
 62
7
  6
CONTINUOUS
 10
459.0449730505
 20
-208.2126708177
  0
VERTEX
  8
0
 62
7
  6
CONTINUOUS
 10
459.0694152025
 20
-208.6212674338
  0
VERTEX
  8
0
 62
7
  6
CONTINUOUS
 10
459.0773527975
 20
-209.0280857217
  0
VERTEX
  8
0
 62
7
  6
CONTINUOUS
 10
459.0692688398
 20
-209.4345951029
  0
VERTEX
  8
0
 62
7
  6
CONTINUOUS
 10
459.0447115234
 20
-209.8425734067
  0
VERTEX
  8
0
 62
7
  6
CONTINUOUS
 10
459.0036832954
 20
-210.2542849846
  0
VERTEX
  8
0
 62
7
  6
CONTINUOUS
 10
458.9457287332
 20
-210.6697396912
  0
VERTEX
  8
0
 62
7
  6
CONTINUOUS
 10
458.8706572526
 20
-211.0897019714
  0
VERTEX
  8
0
 62
7
  6
CONTINUOUS
 10
458.7781972432
 20
-211.5141724051
  0
VERTEX
  8
0
 62
7
  6
CONTINUOUS
 10
458.6684125806
 20
-211.9430823496
  0
VERTEX
  8
0
 62
7
  6
CONTINUOUS
 10
458.5407733483
 20
-212.3774039169
  0
VERTEX
  8
0
 62
7
  6
CONTINUOUS
 10
458.3949612782
 20
-212.8185875478
  0
VERTEX
  8
0
 62
7
  6
CONTINUOUS
 10
458.2313717293
 20
-213.2651296127
  0
VERTEX
  8
0
 62
7
  6
CONTINUOUS
 10
458.049922582
 20
-213.7173375417
  0
VERTEX
  8
0
 62
7
  6
CONTINUOUS
 10
457.8528889307
 20
-214.1712285965
  0
VERTEX
  8
0
 62
7
  6
CONTINUOUS
 10
457.6417515792
 20
-214.6240990982
  0
VERTEX
  8
0
 62
7
  6
CONTINUOUS
 10
457.419616176
 20
-215.0724192985
  0
VERTEX
  8
0
 62
7
  6
CONTINUOUS
 10
457.1888098221
 20
-215.5130434464
  0
VERTEX
  8
0
 62
7
  6
CONTINUOUS
 10
456.9533415794
 20
-215.9421158711
  0
VERTEX
  8
0
 62
7
  6
CONTINUOUS
 10
456.7163818601
 20
-216.3557119324
  0
VERTEX
  8
0
 62
7
  6
CONTINUOUS
 10
456.4818675514
 20
-216.7508927883
  0
VERTEX
  8
0
 62
7
  6
CONTINUOUS
 10
456.2535787408
 20
-217.1233138795
  0
VERTEX
  8
0
 62
7
  6
CONTINUOUS
 10
456.0331618572
 20
-217.4732677171
  0
VERTEX
  8
0
 62
7
  6
CONTINUOUS
 10
455.8225762831
 20
-217.7996542127
  0
VERTEX
  8
0
 62
7
  6
CONTINUOUS
 10
455.6232971683
 20
-218.1023066059
  0
VERTEX
  8
0
 62
7
  6
CONTINUOUS
 10
455.4368512971
 20
-218.3804155313
  0
VERTEX
  8
0
 62
7
  6
CONTINUOUS
 10
455.2636263258
 20
-218.6348087165
  0
VERTEX
  8
0
 62
7
  6
CONTINUOUS
 10
455.1041907045
 20
-218.8658554116
  0
VERTEX
  8
0
 62
7
  6
CONTINUOUS
 10
454.9587883944
 20
-219.0741216845
  0
SEQEND
  0
LINE
  8
0
 62
7
  6
CONTINUOUS
 10
454.9587883944
 20
405.9258783155
 11
454.7108213467
 21
405.5756195824
  0
LINE
  8
0
 62
7
  6
CONTINUOUS
 10
454.7108213467
 20
405.5756195824
 11
454.5191378805
 21
405.3087938474
  0
POLYLINE
  8
0
 62
7
  6
CONTINUOUS
 66
1
 70
0
  0
VERTEX
  8
0
 62
7
  6
CONTINUOUS
 10
454.5191378805
 20
405.3087938474
  0
VERTEX
  8
0
 62
7
  6
CONTINUOUS
 10
454.33607488
 20
405.0568996437
  0
VERTEX
  8
0
 62
7
  6
CONTINUOUS
 10
454.2821117633
 20
404.9831054647
  0
SEQEND
  0
LINE
  8
0
 62
7
  6
CONTINUOUS
 10
-85.7313289652
 20
-295.0350665761
 11
-85.8326913669
 21
-295.1738296353
  0
LINE
  8
0
 62
7
  6
CONTINUOUS
 10
-85.724607958
 20
-295.0259805629
 11
-85.7313289652
 21
-295.0350665761
  0
LINE
  8
0
 62
7
  6
CONTINUOUS
 10
454.2821117633
 20
404.9831054647
 11
454.275392042
 21
404.9740194371
  0
LINE
  8
0
 62
7
  6
CONTINUOUS
 10
454.275392042
 20
-101.0259805629
 11
454.2821130491
 21
-101.0350665761
  0
LINE
  8
0
 62
7
  6
CONTINUOUS
 10
-85.7313276794
 20
598.9831054647
 11
-85.724607958
 21
598.9740194371
  0
LINE
  8
0
 62
7
  6
CONTINUOUS
 10
-85.8326504279
 20
599.1218123307
 11
-85.7313276794
 21
598.9831054647
  0
LINE
  8
0
 62
7
  6
CONTINUOUS
 10
454.2821130491
 20
-101.0350665761
 11
454.4444574848
 21
-101.2576074292
  0
LINE
  8
0
 62
7
  6
CONTINUOUS
 10
454.4444574848
 20
-101.2576074292
 11
454.6080492901
 21
-101.4841055068
  0
POLYLINE
  8
0
 62
7
  6
CONTINUOUS
 66
1
 70
0
  0
VERTEX
  8
0
 62
7
  6
CONTINUOUS
 10
454.6080492901
 20
-101.4841055068
  0
VERTEX
  8
0
 62
7
  6
CONTINUOUS
 10
454.8278956984
 20
-101.7921627199
  0
VERTEX
  8
0
 62
7
  6
CONTINUOUS
 10
454.9589817871
 20
-101.9781149893
  0
VERTEX
  8
0
 62
7
  6
CONTINUOUS
 10
455.1043931164
 20
-102.1863952694
  0
VERTEX
  8
0
 62
7
  6
CONTINUOUS
 10
455.263829957
 20
-102.4174493505
  0
VERTEX
  8
0
 62
7
  6
CONTINUOUS
 10
455.4370667847
 20
-102.6718658941
  0
VERTEX
  8
0
 62
7
  6
CONTINUOUS
 10
455.6235204454
 20
-102.9499903641
  0
VERTEX
  8
0
 62
7
  6
CONTINUOUS
 10
455.8227919567
 20
-103.25263869
  0
VERTEX
  8
0
 62
7
  6
CONTINUOUS
 10
456.0333498639
 20
-103.5789881368
  0
VERTEX
  8
0
 62
7
  6
CONTINUOUS
 10
456.2536984477
 20
-103.9288356788
  0
VERTEX
  8
0
 62
7
  6
CONTINUOUS
 10
456.4819096861
 20
-104.3011381186
  0
VERTEX
  8
0
 62
7
  6
CONTINUOUS
 10
456.7163648207
 20
-104.6962153062
  0
VERTEX
  8
0
 62
7
  6
CONTINUOUS
 10
456.9533021883
 20
-105.1097750742
  0
VERTEX
  8
0
 62
7
  6
CONTINUOUS
 10
457.1888505294
 20
-105.5390087712
  0
VERTEX
  8
0
 62
7
  6
CONTINUOUS
 10
457.419740549
 20
-105.9797856999
  0
VERTEX
  8
0
 62
7
  6
CONTINUOUS
 10
457.6418369927
 20
-106.4280286366
  0
VERTEX
  8
0
 62
7
  6
CONTINUOUS
 10
457.8529051377
 20
-106.8807685091
  0
VERTEX
  8
0
 62
7
  6
CONTINUOUS
 10
458.0499107736
 20
-107.3345973086
  0
VERTEX
  8
0
 62
7
  6
CONTINUOUS
 10
458.231342215
 20
-107.7867546219
  0
VERTEX
  8
0
 62
7
  6
CONTINUOUS
 10
458.3949049962
 20
-108.2331977438
  0
VERTEX
  8
0
 62
7
  6
CONTINUOUS
 10
458.540713507
 20
-108.6743655419
  0
VERTEX
  8
0
 62
7
  6
CONTINUOUS
 10
458.6684111679
 20
-109.1088700201
  0
VERTEX
  8
0
 62
7
  6
CONTINUOUS
 10
458.7782826509
 20
-109.5381490639
  0
VERTEX
  8
0
 62
7
  6
CONTINUOUS
 10
458.8708476572
 20
-109.9632446114
  0
VERTEX
  8
0
 62
7
  6
CONTINUOUS
 10
458.9460046933
 20
-110.3839565074
  0
VERTEX
  8
0
 62
7
  6
CONTINUOUS
 10
459.0039804527
 20
-110.8002131963
  0
VERTEX
  8
0
 62
7
  6
CONTINUOUS
 10
459.0449730505
 20
-111.2126708177
  0
VERTEX
  8
0
 62
7
  6
CONTINUOUS
 10
459.0694152025
 20
-111.6212674338
  0
VERTEX
  8
0
 62
7
  6
CONTINUOUS
 10
459.0773527975
 20
-112.0280857217
  0
VERTEX
  8
0
 62
7
  6
CONTINUOUS
 10
459.0692688398
 20
-112.4345951029
  0
VERTEX
  8
0
 62
7
  6
CONTINUOUS
 10
459.0447115234
 20
-112.8425734067
  0
VERTEX
  8
0
 62
7
  6
CONTINUOUS
 10
459.0036832954
 20
-113.2542849846
  0
VERTEX
  8
0
 62
7
  6
CONTINUOUS
 10
458.9457287332
 20
-113.6697396912
  0
VERTEX
  8
0
 62
7
  6
CONTINUOUS
 10
458.8706572526
 20
-114.0897019714
  0
VERTEX
  8
0
 62
7
  6
CONTINUOUS
 10
458.7781972432
 20
-114.5141724051
  0
VERTEX
  8
0
 62
7
  6
CONTINUOUS
 10
458.6684125806
 20
-114.9430823496
  0
VERTEX
  8
0
 62
7
  6
CONTINUOUS
 10
458.5407733483
 20
-115.3774039169
  0
VERTEX
  8
0
 62
7
  6
CONTINUOUS
 10
458.3949612782
 20
-115.8185875478
  0
VERTEX
  8
0
 62
7
  6
CONTINUOUS
 10
458.2313717293
 20
-116.2651296127
  0
VERTEX
  8
0
 62
7
  6
CONTINUOUS
 10
458.049922582
 20
-116.7173375417
  0
VERTEX
  8
0
 62
7
  6
CONTINUOUS
 10
457.8528889307
 20
-117.1712285965
  0
VERTEX
  8
0
 62
7
  6
CONTINUOUS
 10
457.6417515792
 20
-117.6240990982
  0
VERTEX
  8
0
 62
7
  6
CONTINUOUS
 10
457.419616176
 20
-118.0724192985
  0
VERTEX
  8
0
 62
7
  6
CONTINUOUS
 10
457.1888098221
 20
-118.5130434464
  0
VERTEX
  8
0
 62
7
  6
CONTINUOUS
 10
456.9533415794
 20
-118.9421158711
  0
VERTEX
  8
0
 62
7
  6
CONTINUOUS
 10
456.7163818601
 20
-119.3557119324
  0
VERTEX
  8
0
 62
7
  6
CONTINUOUS
 10
456.4818675514
 20
-119.7508927883
  0
VERTEX
  8
0
 62
7
  6
CONTINUOUS
 10
456.2535787408
 20
-120.1233138795
  0
VERTEX
  8
0
 62
7
  6
CONTINUOUS
 10
456.0331618572
 20
-120.4732677171
  0
VERTEX
  8
0
 62
7
  6
CONTINUOUS
 10
455.8225762831
 20
-120.7996542127
  0
VERTEX
  8
0
 62
7
  6
CONTINUOUS
 10
455.6232971683
 20
-121.1023066059
  0
VERTEX
  8
0
 62
7
  6
CONTINUOUS
 10
455.4368512971
 20
-121.3804155313
  0
VERTEX
  8
0
 62
7
  6
CONTINUOUS
 10
455.2636263258
 20
-121.6348087165
  0
VERTEX
  8
0
 62
7
  6
CONTINUOUS
 10
455.1041907045
 20
-121.8658554116
  0
VERTEX
  8
0
 62
7
  6
CONTINUOUS
 10
454.9587883944
 20
-122.0741216845
  0
SEQEND
  0
LINE
  8
0
 62
7
  6
CONTINUOUS
 10
-85.724607958
 20
237.9740194371
 11
454.275392042
 21
237.9740194371
  0
LINE
  8
0
 62
7
  6
CONTINUOUS
 10
454.275392042
 20
259.9740194371
 11
-85.724607958
 21
259.9740194371
  0
LINE
  8
0
 62
7
  6
CONTINUOUS
 10
454.9587883944
 20
238.9258783155
 11
454.7108213467
 21
238.5756195824
  0
LINE
  8
0
 62
7
  6
CONTINUOUS
 10
454.7108213467
 20
238.5756195824
 11
454.5191378805
 21
238.3087938474
  0
POLYLINE
  8
0
 62
7
  6
CONTINUOUS
 66
1
 70
0
  0
VERTEX
  8
0
 62
7
  6
CONTINUOUS
 10
454.5191378805
 20
238.3087938474
  0
VERTEX
  8
0
 62
7
  6
CONTINUOUS
 10
454.33607488
 20
238.0568996437
  0
VERTEX
  8
0
 62
7
  6
CONTINUOUS
 10
454.2821117633
 20
237.9831054647
  0
SEQEND
  0
LINE
  8
0
 62
7
  6
CONTINUOUS
 10
454.2821117633
 20
237.9831054647
 11
454.275392042
 21
237.9740194371
  0
LINE
  8
0
 62
7
  6
CONTINUOUS
 10
454.275392042
 20
65.9740194371
 11
454.2821130491
 21
65.9649334239
  0
LINE
  8
0
 62
7
  6
CONTINUOUS
 10
454.2821130491
 20
65.9649334239
 11
454.4444574848
 21
65.7423925708
  0
LINE
  8
0
 62
7
  6
CONTINUOUS
 10
454.4444574848
 20
65.7423925708
 11
454.6080492901
 21
65.5158944932
  0
POLYLINE
  8
0
 62
7
  6
CONTINUOUS
 66
1
 70
0
  0
VERTEX
  8
0
 62
7
  6
CONTINUOUS
 10
454.6080492901
 20
65.5158944932
  0
VERTEX
  8
0
 62
7
  6
CONTINUOUS
 10
454.8278956984
 20
65.2078372801
  0
VERTEX
  8
0
 62
7
  6
CONTINUOUS
 10
454.9589817871
 20
65.0218850107
  0
VERTEX
  8
0
 62
7
  6
CONTINUOUS
 10
455.1043931164
 20
64.8136047306
  0
VERTEX
  8
0
 62
7
  6
CONTINUOUS
 10
455.263829957
 20
64.5825506495
  0
VERTEX
  8
0
 62
7
  6
CONTINUOUS
 10
455.4370667847
 20
64.3281341059
  0
VERTEX
  8
0
 62
7
  6
CONTINUOUS
 10
455.6235204454
 20
64.0500096359
  0
VERTEX
  8
0
 62
7
  6
CONTINUOUS
 10
455.8227919567
 20
63.74736131
  0
VERTEX
  8
0
 62
7
  6
CONTINUOUS
 10
456.0333498639
 20
63.4210118632
  0
VERTEX
  8
0
 62
7
  6
CONTINUOUS
 10
456.2536984477
 20
63.0711643212
  0
VERTEX
  8
0
 62
7
  6
CONTINUOUS
 10
456.4819096861
 20
62.6988618814
  0
VERTEX
  8
0
 62
7
  6
CONTINUOUS
 10
456.7163648207
 20
62.3037846938
  0
VERTEX
  8
0
 62
7
  6
CONTINUOUS
 10
456.9533021883
 20
61.8902249258
  0
VERTEX
  8
0
 62
7
  6
CONTINUOUS
 10
457.1888505294
 20
61.4609912288
  0
VERTEX
  8
0
 62
7
  6
CONTINUOUS
 10
457.419740549
 20
61.0202143001
  0
VERTEX
  8
0
 62
7
  6
CONTINUOUS
 10
457.6418369927
 20
60.5719713634
  0
VERTEX
  8
0
 62
7
  6
CONTINUOUS
 10
457.8529051377
 20
60.1192314909
  0
VERTEX
  8
0
 62
7
  6
CONTINUOUS
 10
458.0499107736
 20
59.6654026914
  0
VERTEX
  8
0
 62
7
  6
CONTINUOUS
 10
458.231342215
 20
59.2132453781
  0
VERTEX
  8
0
 62
7
  6
CONTINUOUS
 10
458.3949049962
 20
58.7668022562
  0
VERTEX
  8
0
 62
7
  6
CONTINUOUS
 10
458.540713507
 20
58.3256344581
  0
VERTEX
  8
0
 62
7
  6
CONTINUOUS
 10
458.6684111679
 20
57.8911299799
  0
VERTEX
  8
0
 62
7
  6
CONTINUOUS
 10
458.7782826509
 20
57.4618509361
  0
VERTEX
  8
0
 62
7
  6
CONTINUOUS
 10
458.8708476572
 20
57.0367553886
  0
VERTEX
  8
0
 62
7
  6
CONTINUOUS
 10
458.9460046933
 20
56.6160434926
  0
VERTEX
  8
0
 62
7
  6
CONTINUOUS
 10
459.0039804527
 20
56.1997868037
  0
VERTEX
  8
0
 62
7
  6
CONTINUOUS
 10
459.0449730505
 20
55.7873291823
  0
VERTEX
  8
0
 62
7
  6
CONTINUOUS
 10
459.0694152025
 20
55.3787325662
  0
VERTEX
  8
0
 62
7
  6
CONTINUOUS
 10
459.0773527975
 20
54.9719142783
  0
VERTEX
  8
0
 62
7
  6
CONTINUOUS
 10
459.0692688398
 20
54.5654048971
  0
VERTEX
  8
0
 62
7
  6
CONTINUOUS
 10
459.0447115234
 20
54.1574265933
  0
VERTEX
  8
0
 62
7
  6
CONTINUOUS
 10
459.0036832954
 20
53.7457150154
  0
VERTEX
  8
0
 62
7
  6
CONTINUOUS
 10
458.9457287332
 20
53.3302603088
  0
VERTEX
  8
0
 62
7
  6
CONTINUOUS
 10
458.8706572526
 20
52.9102980286
  0
VERTEX
  8
0
 62
7
  6
CONTINUOUS
 10
458.7781972432
 20
52.4858275949
  0
VERTEX
  8
0
 62
7
  6
CONTINUOUS
 10
458.6684125806
 20
52.0569176504
  0
VERTEX
  8
0
 62
7
  6
CONTINUOUS
 10
458.5407733483
 20
51.6225960831
  0
VERTEX
  8
0
 62
7
  6
CONTINUOUS
 10
458.3949612782
 20
51.1814124522
  0
VERTEX
  8
0
 62
7
  6
CONTINUOUS
 10
458.2313717293
 20
50.7348703873
  0
VERTEX
  8
0
 62
7
  6
CONTINUOUS
 10
458.049922582
 20
50.2826624583
  0
VERTEX
  8
0
 62
7
  6
CONTINUOUS
 10
457.8528889307
 20
49.8287714035
  0
VERTEX
  8
0
 62
7
  6
CONTINUOUS
 10
457.6417515792
 20
49.3759009018
  0
VERTEX
  8
0
 62
7
  6
CONTINUOUS
 10
457.419616176
 20
48.9275807015
  0
VERTEX
  8
0
 62
7
  6
CONTINUOUS
 10
457.1888098221
 20
48.4869565536
  0
VERTEX
  8
0
 62
7
  6
CONTINUOUS
 10
456.9533415794
 20
48.0578841289
  0
VERTEX
  8
0
 62
7
  6
CONTINUOUS
 10
456.7163818601
 20
47.6442880676
  0
VERTEX
  8
0
 62
7
  6
CONTINUOUS
 10
456.4818675514
 20
47.2491072117
  0
VERTEX
  8
0
 62
7
  6
CONTINUOUS
 10
456.2535787408
 20
46.8766861205
  0
VERTEX
  8
0
 62
7
  6
CONTINUOUS
 10
456.0331618572
 20
46.5267322829
  0
VERTEX
  8
0
 62
7
  6
CONTINUOUS
 10
455.8225762831
 20
46.2003457873
  0
VERTEX
  8
0
 62
7
  6
CONTINUOUS
 10
455.6232971683
 20
45.8976933941
  0
VERTEX
  8
0
 62
7
  6
CONTINUOUS
 10
455.4368512971
 20
45.6195844687
  0
VERTEX
  8
0
 62
7
  6
CONTINUOUS
 10
455.2636263258
 20
45.3651912835
  0
VERTEX
  8
0
 62
7
  6
CONTINUOUS
 10
455.1041907045
 20
45.1341445884
  0
VERTEX
  8
0
 62
7
  6
CONTINUOUS
 10
454.9587883944
 20
44.9258783155
  0
SEQEND
  0
LINE
  8
0
 62
7
  6
CONTINUOUS
 10
454.9589315094
 20
141.9260822269
 11
454.7109136189
 21
141.5757488244
  0
LINE
  8
0
 62
7
  6
CONTINUOUS
 10
454.7109136189
 20
141.5757488244
 11
454.5191894994
 21
141.3088652667
  0
POLYLINE
  8
0
 62
7
  6
CONTINUOUS
 66
1
 70
0
  0
VERTEX
  8
0
 62
7
  6
CONTINUOUS
 10
454.5191894994
 20
141.3088652667
  0
VERTEX
  8
0
 62
7
  6
CONTINUOUS
 10
454.3360873816
 20
141.0569167692
  0
VERTEX
  8
0
 62
7
  6
CONTINUOUS
 10
454.2821131068
 20
140.9831071944
  0
SEQEND
  0
LINE
  8
0
 62
7
  6
CONTINUOUS
 10
454.2821131068
 20
140.9831071944
 11
454.275392042
 21
140.9740194371
  0
LINE
  8
0
 62
7
  6
CONTINUOUS
 10
454.275392042
 20
162.9740194371
 11
454.2821143953
 21
162.9649316858
  0
LINE
  8
0
 62
7
  6
CONTINUOUS
 10
454.2821143953
 20
162.9649316858
 11
454.4444930301
 21
162.7423436029
  0
LINE
  8
0
 62
7
  6
CONTINUOUS
 10
454.4444930301
 20
162.7423436029
 11
454.6081198118
 21
162.5157963548
  0
POLYLINE
  8
0
 62
7
  6
CONTINUOUS
 66
1
 70
0
  0
VERTEX
  8
0
 62
7
  6
CONTINUOUS
 10
454.6081198118
 20
162.5157963548
  0
VERTEX
  8
0
 62
7
  6
CONTINUOUS
 10
454.8280121059
 20
162.2076730369
  0
VERTEX
  8
0
 62
7
  6
CONTINUOUS
 10
454.9591250711
 20
162.0216808556
  0
VERTEX
  8
0
 62
7
  6
CONTINUOUS
 10
455.1045662488
 20
161.8133555474
  0
VERTEX
  8
0
 62
7
  6
CONTINUOUS
 10
455.2640366172
 20
161.5822492864
  0
VERTEX
  8
0
 62
7
  6
CONTINUOUS
 10
455.4373126253
 20
161.3277701412
  0
VERTEX
  8
0
 62
7
  6
CONTINUOUS
 10
455.6238086326
 20
161.0495761463
  0
VERTEX
  8
0
 62
7
  6
CONTINUOUS
 10
455.8231242829
 20
160.7468511381
  0
VERTEX
  8
0
 62
7
  6
CONTINUOUS
 10
456.0337237143
 20
160.4204257794
  0
VERTEX
  8
0
 62
7
  6
CONTINUOUS
 10
456.2541043719
 20
160.0705116373
  0
VERTEX
  8
0
 62
7
  6
CONTINUOUS
 10
456.4823396148
 20
159.698149835
  0
VERTEX
  8
0
 62
7
  6
CONTINUOUS
 10
456.7168053972
 20
159.3030323222
  0
VERTEX
  8
0
 62
7
  6
CONTINUOUS
 10
456.9537549811
 20
158.8894181861
  0
VERTEX
  8
0
 62
7
  6
CONTINUOUS
 10
457.1893366878
 20
158.4600856277
  0
VERTEX
  8
0
 62
7
  6
CONTINUOUS
 10
457.4202734711
 20
158.0191692557
  0
VERTEX
  8
0
 62
7
  6
CONTINUOUS
 10
457.6424478398
 20
157.5706885397
  0
VERTEX
  8
0
 62
7
  6
CONTINUOUS
 10
457.8535646926
 20
157.1177670979
  0
VERTEX
  8
0
 62
7
  6
CONTINUOUS
 10
458.0505067713
 20
156.6639824586
  0
VERTEX
  8
0
 62
7
  6
CONTINUOUS
 10
458.2318231216
 20
156.2119923603
  0
VERTEX
  8
0
 62
7
  6
CONTINUOUS
 10
458.3951767631
 20
155.7661469226
  0
VERTEX
  8
0
 62
7
  6
CONTINUOUS
 10
458.540928274
 20
155.3249465304
  0
VERTEX
  8
0
 62
7
  6
CONTINUOUS
 10
458.6691012148
 20
154.8885481779
  0
VERTEX
  8
0
 62
7
  6
CONTINUOUS
 10
458.779589241
 20
154.4563321566
  0
VERTEX
  8
0
 62
7
  6
CONTINUOUS
 10
458.8726811427
 20
154.0271208775
  0
VERTEX
  8
0
 62
7
  6
CONTINUOUS
 10
458.9481103628
 20
153.602744976
  0
VERTEX
  8
0
 62
7
  6
CONTINUOUS
 10
459.0057286365
 20
153.184449707
  0
VERTEX
  8
0
 62
7
  6
CONTINUOUS
 10
459.0461167914
 20
152.7728136228
  0
VERTEX
  8
0
 62
7
  6
CONTINUOUS
 10
459.069848647
 20
152.3707398472
  0
VERTEX
  8
0
 62
7
  6
CONTINUOUS
 10
459.0773529016
 20
151.9724999208
  0
VERTEX
  8
0
 62
7
  6
CONTINUOUS
 10
459.0697596267
 20
151.5746481781
  0
VERTEX
  8
0
 62
7
  6
CONTINUOUS
 10
459.0459615237
 20
151.173239362
  0
VERTEX
  8
0
 62
7
  6
CONTINUOUS
 10
459.0055689202
 20
150.7622017151
  0
VERTEX
  8
0
 62
7
  6
CONTINUOUS
 10
458.9479802466
 20
150.3444690725
  0
VERTEX
  8
0
 62
7
  6
CONTINUOUS
 10
458.8726074431
 20
149.9205368913
  0
VERTEX
  8
0
 62
7
  6
CONTINUOUS
 10
458.7795754836
 20
149.4916485488
  0
VERTEX
  8
0
 62
7
  6
CONTINUOUS
 10
458.6691254184
 20
149.0595854992
  0
VERTEX
  8
0
 62
7
  6
CONTINUOUS
 10
458.540970923
 20
148.6232289693
  0
VERTEX
  8
0
 62
7
  6
CONTINUOUS
 10
458.3952045518
 20
148.1819808309
  0
VERTEX
  8
0
 62
7
  6
CONTINUOUS
 10
458.2318285283
 20
147.7360606029
  0
VERTEX
  8
0
 62
7
  6
CONTINUOUS
 10
458.0505130499
 20
147.2840656648
  0
VERTEX
  8
0
 62
7
  6
CONTINUOUS
 10
457.8535613289
 20
146.830264307
  0
VERTEX
  8
0
 62
7
  6
CONTINUOUS
 10
457.6423766602
 20
146.3772146308
  0
VERTEX
  8
0
 62
7
  6
CONTINUOUS
 10
457.4201587196
 20
145.9286445828
  0
VERTEX
  8
0
 62
7
  6
CONTINUOUS
 10
457.1892988219
 20
145.4878680863
  0
VERTEX
  8
0
 62
7
  6
CONTINUOUS
 10
456.9537912507
 20
145.0586853122
  0
VERTEX
  8
0
 62
7
  6
CONTINUOUS
 10
456.7168187953
 20
144.6450338968
  0
VERTEX
  8
0
 62
7
  6
CONTINUOUS
 10
456.4822951334
 20
144.2498153673
  0
VERTEX
  8
0
 62
7
  6
CONTINUOUS
 10
456.2539838553
 20
143.8773373742
  0
VERTEX
  8
0
 62
7
  6
CONTINUOUS
 10
456.0335362367
 20
143.5273191838
  0
VERTEX
  8
0
 62
7
  6
CONTINUOUS
 10
455.8229093356
 20
143.200857109
  0
VERTEX
  8
0
 62
7
  6
CONTINUOUS
 10
455.6235858786
 20
142.8981276616
  0
VERTEX
  8
0
 62
7
  6
CONTINUOUS
 10
455.4370973378
 20
142.6199487509
  0
VERTEX
  8
0
 62
7
  6
CONTINUOUS
 10
455.2638328866
 20
142.3654924967
  0
VERTEX
  8
0
 62
7
  6
CONTINUOUS
 10
455.1043636553
 20
142.1343935017
  0
VERTEX
  8
0
 62
7
  6
CONTINUOUS
 10
454.9589315094
 20
141.9260822269
  0
SEQEND
  0
LINE
  8
0
 62
7
  6
CONTINUOUS
 10
454.275392042
 20
664.4740194371
 11
454.275392042
 21
620.9740194371
  0
LINE
  8
0
 62
7
  6
CONTINUOUS
 10
454.275392042
 20
598.9740194371
 11
454.275392042
 21
523.9740194371
  0
LINE
  8
0
 62
7
  6
CONTINUOUS
 10
454.275392042
 20
501.9740194371
 11
454.275392042
 21
426.9740194371
  0
LINE
  8
0
 62
7
  6
CONTINUOUS
 10
454.275392042
 20
404.9740194371
 11
454.275392042
 21
259.9740194371
  0
LINE
  8
0
 62
7
  6
CONTINUOUS
 10
454.275392042
 20
237.9740194371
 11
454.275392042
 21
162.9740194371
  0
LINE
  8
0
 62
7
  6
CONTINUOUS
 10
454.275392042
 20
140.9740194371
 11
454.275392042
 21
65.9740194371
  0
LINE
  8
0
 62
7
  6
CONTINUOUS
 10
454.275392042
 20
43.9740194371
 11
454.275392042
 21
-101.0259805629
  0
LINE
  8
0
 62
7
  6
CONTINUOUS
 10
454.275392042
 20
-123.0259805629
 11
454.275392042
 21
-198.0259805629
  0
LINE
  8
0
 62
7
  6
CONTINUOUS
 10
454.275392042
 20
-220.0259805629
 11
454.275392042
 21
-295.0259805629
  0
LINE
  8
0
 62
7
  6
CONTINUOUS
 10
454.275392042
 20
-317.0259805629
 11
454.275392042
 21
-360.5259805629
  0
LINE
  8
0
 62
7
  6
CONTINUOUS
 10
454.7108213467
 20
44.5756195824
 11
454.5191378805
 21
44.3087938474
  0
POLYLINE
  8
0
 62
7
  6
CONTINUOUS
 66
1
 70
0
  0
VERTEX
  8
0
 62
7
  6
CONTINUOUS
 10
454.5191378805
 20
44.3087938474
  0
VERTEX
  8
0
 62
7
  6
CONTINUOUS
 10
454.33607488
 20
44.0568996437
  0
VERTEX
  8
0
 62
7
  6
CONTINUOUS
 10
454.2821117633
 20
43.9831054647
  0
SEQEND
  0
LINE
  8
0
 62
7
  6
CONTINUOUS
 10
454.2821117633
 20
43.9831054647
 11
454.275392042
 21
43.9740194371
  0
LINE
  8
0
 62
7
  6
CONTINUOUS
 10
-85.724607958
 20
404.9740194371
 11
454.275392042
 21
404.9740194371
  0
LINE
  8
0
 62
7
  6
CONTINUOUS
 10
454.275392042
 20
426.9740194371
 11
-85.724607958
 21
426.9740194371
  0
LINE
  8
0
 62
7
  6
CONTINUOUS
 10
454.275392042
 20
259.9740194371
 11
454.2821130491
 21
259.9649334239
  0
LINE
  8
0
 62
7
  6
CONTINUOUS
 10
454.2821130491
 20
259.9649334239
 11
454.4444574848
 21
259.7423925708
  0
POLYLINE
  8
0
 62
7
  6
CONTINUOUS
 66
1
 70
0
  0
VERTEX
  8
0
 62
7
  6
CONTINUOUS
 10
454.4444574848
 20
259.7423925708
  0
VERTEX
  8
0
 62
7
  6
CONTINUOUS
 10
454.6080492901
 20
259.5158944932
  0
VERTEX
  8
0
 62
7
  6
CONTINUOUS
 10
454.7109524806
 20
259.3722356176
  0
SEQEND
  0
LINE
  8
0
 62
7
  6
CONTINUOUS
 10
484.275392042
 20
664.4740194371
 11
484.275392042
 21
-360.5259805629
  0
LINE
  8
0
 62
7
  6
CONTINUOUS
 10
454.9587883944
 20
44.9258783155
 11
454.7108213467
 21
44.5756195824
  0
POLYLINE
  8
0
 62
7
  6
CONTINUOUS
 66
1
 70
0
  0
VERTEX
  8
0
 62
7
  6
CONTINUOUS
 10
454.7109524806
 20
259.3722356176
  0
VERTEX
  8
0
 62
7
  6
CONTINUOUS
 10
454.9589817871
 20
259.0218850107
  0
VERTEX
  8
0
 62
7
  6
CONTINUOUS
 10
455.1043931164
 20
258.8136047306
  0
VERTEX
  8
0
 62
7
  6
CONTINUOUS
 10
455.263829957
 20
258.5825506495
  0
VERTEX
  8
0
 62
7
  6
CONTINUOUS
 10
455.4370667847
 20
258.3281341059
  0
VERTEX
  8
0
 62
7
  6
CONTINUOUS
 10
455.6235204454
 20
258.0500096359
  0
VERTEX
  8
0
 62
7
  6
CONTINUOUS
 10
455.8227919567
 20
257.74736131
  0
VERTEX
  8
0
 62
7
  6
CONTINUOUS
 10
456.0333498639
 20
257.4210118632
  0
VERTEX
  8
0
 62
7
  6
CONTINUOUS
 10
456.2536984477
 20
257.0711643212
  0
VERTEX
  8
0
 62
7
  6
CONTINUOUS
 10
456.4819096861
 20
256.6988618814
  0
VERTEX
  8
0
 62
7
  6
CONTINUOUS
 10
456.7163648207
 20
256.3037846938
  0
VERTEX
  8
0
 62
7
  6
CONTINUOUS
 10
456.9533021883
 20
255.8902249258
  0
VERTEX
  8
0
 62
7
  6
CONTINUOUS
 10
457.1888505294
 20
255.4609912288
  0
VERTEX
  8
0
 62
7
  6
CONTINUOUS
 10
457.419740549
 20
255.0202143001
  0
VERTEX
  8
0
 62
7
  6
CONTINUOUS
 10
457.6418369927
 20
254.5719713634
  0
VERTEX
  8
0
 62
7
  6
CONTINUOUS
 10
457.8529051377
 20
254.1192314909
  0
VERTEX
  8
0
 62
7
  6
CONTINUOUS
 10
458.0499107736
 20
253.6654026914
  0
VERTEX
  8
0
 62
7
  6
CONTINUOUS
 10
458.231342215
 20
253.2132453781
  0
VERTEX
  8
0
 62
7
  6
CONTINUOUS
 10
458.3949049962
 20
252.7668022562
  0
VERTEX
  8
0
 62
7
  6
CONTINUOUS
 10
458.540713507
 20
252.3256344581
  0
VERTEX
  8
0
 62
7
  6
CONTINUOUS
 10
458.6684111679
 20
251.8911299799
  0
VERTEX
  8
0
 62
7
  6
CONTINUOUS
 10
458.7782826509
 20
251.4618509361
  0
VERTEX
  8
0
 62
7
  6
CONTINUOUS
 10
458.8708476572
 20
251.0367553886
  0
VERTEX
  8
0
 62
7
  6
CONTINUOUS
 10
458.9460046933
 20
250.6160434926
  0
VERTEX
  8
0
 62
7
  6
CONTINUOUS
 10
459.0039804527
 20
250.1997868037
  0
VERTEX
  8
0
 62
7
  6
CONTINUOUS
 10
459.0449730505
 20
249.7873291823
  0
VERTEX
  8
0
 62
7
  6
CONTINUOUS
 10
459.0694152025
 20
249.3787325662
  0
VERTEX
  8
0
 62
7
  6
CONTINUOUS
 10
459.0773527975
 20
248.9719142783
  0
VERTEX
  8
0
 62
7
  6
CONTINUOUS
 10
459.0692688398
 20
248.5654048971
  0
VERTEX
  8
0
 62
7
  6
CONTINUOUS
 10
459.0447115234
 20
248.1574265933
  0
VERTEX
  8
0
 62
7
  6
CONTINUOUS
 10
459.0036832954
 20
247.7457150154
  0
VERTEX
  8
0
 62
7
  6
CONTINUOUS
 10
458.9457287332
 20
247.3302603088
  0
VERTEX
  8
0
 62
7
  6
CONTINUOUS
 10
458.8706572526
 20
246.9102980286
  0
VERTEX
  8
0
 62
7
  6
CONTINUOUS
 10
458.7781972432
 20
246.4858275949
  0
VERTEX
  8
0
 62
7
  6
CONTINUOUS
 10
458.6684125806
 20
246.0569176504
  0
VERTEX
  8
0
 62
7
  6
CONTINUOUS
 10
458.5407733483
 20
245.6225960831
  0
VERTEX
  8
0
 62
7
  6
CONTINUOUS
 10
458.3949612782
 20
245.1814124522
  0
VERTEX
  8
0
 62
7
  6
CONTINUOUS
 10
458.2313717293
 20
244.7348703873
  0
VERTEX
  8
0
 62
7
  6
CONTINUOUS
 10
458.049922582
 20
244.2826624583
  0
VERTEX
  8
0
 62
7
  6
CONTINUOUS
 10
457.8528889307
 20
243.8287714035
  0
VERTEX
  8
0
 62
7
  6
CONTINUOUS
 10
457.6417515792
 20
243.3759009018
  0
VERTEX
  8
0
 62
7
  6
CONTINUOUS
 10
457.419616176
 20
242.9275807015
  0
VERTEX
  8
0
 62
7
  6
CONTINUOUS
 10
457.1888098221
 20
242.4869565536
  0
VERTEX
  8
0
 62
7
  6
CONTINUOUS
 10
456.9533415794
 20
242.0578841289
  0
VERTEX
  8
0
 62
7
  6
CONTINUOUS
 10
456.7163818601
 20
241.6442880676
  0
VERTEX
  8
0
 62
7
  6
CONTINUOUS
 10
456.4818675514
 20
241.2491072117
  0
VERTEX
  8
0
 62
7
  6
CONTINUOUS
 10
456.2535787408
 20
240.8766861205
  0
VERTEX
  8
0
 62
7
  6
CONTINUOUS
 10
456.0331618572
 20
240.5267322829
  0
VERTEX
  8
0
 62
7
  6
CONTINUOUS
 10
455.8225762831
 20
240.2003457873
  0
VERTEX
  8
0
 62
7
  6
CONTINUOUS
 10
455.6232971683
 20
239.8976933941
  0
VERTEX
  8
0
 62
7
  6
CONTINUOUS
 10
455.4368512971
 20
239.6195844687
  0
VERTEX
  8
0
 62
7
  6
CONTINUOUS
 10
455.2636263258
 20
239.3651912835
  0
VERTEX
  8
0
 62
7
  6
CONTINUOUS
 10
455.1041907045
 20
239.1341445884
  0
VERTEX
  8
0
 62
7
  6
CONTINUOUS
 10
454.9587883944
 20
238.9258783155
  0
SEQEND
  0
LINE
  8
0
 62
7
  6
CONTINUOUS
 10
-85.724607958
 20
501.9740194371
 11
454.275392042
 21
501.9740194371
  0
LINE
  8
0
 62
7
  6
CONTINUOUS
 10
454.9587883944
 20
-122.0741216845
 11
454.7108213467
 21
-122.4243804176
  0
LINE
  8
0
 62
7
  6
CONTINUOUS
 10
454.7108213467
 20
-122.4243804176
 11
454.5191378805
 21
-122.6912061526
  0
POLYLINE
  8
0
 62
7
  6
CONTINUOUS
 66
1
 70
0
  0
VERTEX
  8
0
 62
7
  6
CONTINUOUS
 10
454.5191378805
 20
-122.6912061526
  0
VERTEX
  8
0
 62
7
  6
CONTINUOUS
 10
454.33607488
 20
-122.9431003563
  0
VERTEX
  8
0
 62
7
  6
CONTINUOUS
 10
454.2821117633
 20
-123.0168945353
  0
SEQEND
  0
LINE
  8
0
 62
7
  6
CONTINUOUS
 10
454.2821117633
 20
-123.0168945353
 11
454.275392042
 21
-123.0259805629
  0
LINE
  8
0
 62
7
  6
CONTINUOUS
 10
454.275392042
 20
523.9740194371
 11
-85.724607958
 21
523.9740194371
  0
LINE
  8
0
 62
7
  6
CONTINUOUS
 10
454.275392042
 20
426.9740194371
 11
454.2821130491
 21
426.9649334239
  0
LINE
  8
0
 62
7
  6
CONTINUOUS
 10
454.2821130491
 20
426.9649334239
 11
454.4444574848
 21
426.7423925708
  0
LINE
  8
0
 62
7
  6
CONTINUOUS
 10
454.4444574848
 20
426.7423925708
 11
454.6080492901
 21
426.5158944932
  0
POLYLINE
  8
0
 62
7
  6
CONTINUOUS
 66
1
 70
0
  0
VERTEX
  8
0
 62
7
  6
CONTINUOUS
 10
454.6080492901
 20
426.5158944932
  0
VERTEX
  8
0
 62
7
  6
CONTINUOUS
 10
454.8278956984
 20
426.2078372801
  0
VERTEX
  8
0
 62
7
  6
CONTINUOUS
 10
454.9589817871
 20
426.0218850107
  0
VERTEX
  8
0
 62
7
  6
CONTINUOUS
 10
455.1043931164
 20
425.8136047306
  0
VERTEX
  8
0
 62
7
  6
CONTINUOUS
 10
455.263829957
 20
425.5825506495
  0
VERTEX
  8
0
 62
7
  6
CONTINUOUS
 10
455.4370667847
 20
425.3281341059
  0
VERTEX
  8
0
 62
7
  6
CONTINUOUS
 10
455.6235204454
 20
425.0500096359
  0
VERTEX
  8
0
 62
7
  6
CONTINUOUS
 10
455.8227919567
 20
424.74736131
  0
VERTEX
  8
0
 62
7
  6
CONTINUOUS
 10
456.0333498639
 20
424.4210118632
  0
VERTEX
  8
0
 62
7
  6
CONTINUOUS
 10
456.2536984477
 20
424.0711643212
  0
VERTEX
  8
0
 62
7
  6
CONTINUOUS
 10
456.4819096861
 20
423.6988618814
  0
VERTEX
  8
0
 62
7
  6
CONTINUOUS
 10
456.7163648207
 20
423.3037846938
  0
VERTEX
  8
0
 62
7
  6
CONTINUOUS
 10
456.9533021883
 20
422.8902249258
  0
VERTEX
  8
0
 62
7
  6
CONTINUOUS
 10
457.1888505294
 20
422.4609912288
  0
VERTEX
  8
0
 62
7
  6
CONTINUOUS
 10
457.419740549
 20
422.0202143001
  0
VERTEX
  8
0
 62
7
  6
CONTINUOUS
 10
457.6418369927
 20
421.5719713634
  0
VERTEX
  8
0
 62
7
  6
CONTINUOUS
 10
457.8529051377
 20
421.1192314909
  0
VERTEX
  8
0
 62
7
  6
CONTINUOUS
 10
458.0499107736
 20
420.6654026914
  0
VERTEX
  8
0
 62
7
  6
CONTINUOUS
 10
458.231342215
 20
420.2132453781
  0
VERTEX
  8
0
 62
7
  6
CONTINUOUS
 10
458.3949049962
 20
419.7668022562
  0
VERTEX
  8
0
 62
7
  6
CONTINUOUS
 10
458.540713507
 20
419.3256344581
  0
VERTEX
  8
0
 62
7
  6
CONTINUOUS
 10
458.6684111679
 20
418.8911299799
  0
VERTEX
  8
0
 62
7
  6
CONTINUOUS
 10
458.7782826509
 20
418.4618509361
  0
VERTEX
  8
0
 62
7
  6
CONTINUOUS
 10
458.8708476572
 20
418.0367553886
  0
VERTEX
  8
0
 62
7
  6
CONTINUOUS
 10
458.9460046933
 20
417.6160434926
  0
VERTEX
  8
0
 62
7
  6
CONTINUOUS
 10
459.0039804527
 20
417.1997868037
  0
VERTEX
  8
0
 62
7
  6
CONTINUOUS
 10
459.0449730505
 20
416.7873291823
  0
VERTEX
  8
0
 62
7
  6
CONTINUOUS
 10
459.0694152025
 20
416.3787325662
  0
VERTEX
  8
0
 62
7
  6
CONTINUOUS
 10
459.0773527975
 20
415.9719142783
  0
VERTEX
  8
0
 62
7
  6
CONTINUOUS
 10
459.0692688398
 20
415.5654048971
  0
VERTEX
  8
0
 62
7
  6
CONTINUOUS
 10
459.0447115234
 20
415.1574265933
  0
VERTEX
  8
0
 62
7
  6
CONTINUOUS
 10
459.0036832954
 20
414.7457150154
  0
VERTEX
  8
0
 62
7
  6
CONTINUOUS
 10
458.9457287332
 20
414.3302603088
  0
VERTEX
  8
0
 62
7
  6
CONTINUOUS
 10
458.8706572526
 20
413.9102980286
  0
VERTEX
  8
0
 62
7
  6
CONTINUOUS
 10
458.7781972432
 20
413.4858275949
  0
VERTEX
  8
0
 62
7
  6
CONTINUOUS
 10
458.6684125806
 20
413.0569176504
  0
VERTEX
  8
0
 62
7
  6
CONTINUOUS
 10
458.5407733483
 20
412.6225960831
  0
VERTEX
  8
0
 62
7
  6
CONTINUOUS
 10
458.3949612782
 20
412.1814124522
  0
VERTEX
  8
0
 62
7
  6
CONTINUOUS
 10
458.2313717293
 20
411.7348703873
  0
VERTEX
  8
0
 62
7
  6
CONTINUOUS
 10
458.049922582
 20
411.2826624583
  0
VERTEX
  8
0
 62
7
  6
CONTINUOUS
 10
457.8528889307
 20
410.8287714035
  0
VERTEX
  8
0
 62
7
  6
CONTINUOUS
 10
457.6417515792
 20
410.3759009018
  0
VERTEX
  8
0
 62
7
  6
CONTINUOUS
 10
457.419616176
 20
409.9275807015
  0
VERTEX
  8
0
 62
7
  6
CONTINUOUS
 10
457.1888098221
 20
409.4869565536
  0
VERTEX
  8
0
 62
7
  6
CONTINUOUS
 10
456.9533415794
 20
409.0578841289
  0
VERTEX
  8
0
 62
7
  6
CONTINUOUS
 10
456.7163818601
 20
408.6442880676
  0
VERTEX
  8
0
 62
7
  6
CONTINUOUS
 10
456.4818675514
 20
408.2491072117
  0
VERTEX
  8
0
 62
7
  6
CONTINUOUS
 10
456.2535787408
 20
407.8766861205
  0
VERTEX
  8
0
 62
7
  6
CONTINUOUS
 10
456.0331618572
 20
407.5267322829
  0
VERTEX
  8
0
 62
7
  6
CONTINUOUS
 10
455.8225762831
 20
407.2003457873
  0
VERTEX
  8
0
 62
7
  6
CONTINUOUS
 10
455.6232971683
 20
406.8976933941
  0
VERTEX
  8
0
 62
7
  6
CONTINUOUS
 10
455.4368512971
 20
406.6195844687
  0
VERTEX
  8
0
 62
7
  6
CONTINUOUS
 10
455.2636263258
 20
406.3651912835
  0
VERTEX
  8
0
 62
7
  6
CONTINUOUS
 10
455.1041907045
 20
406.1341445884
  0
VERTEX
  8
0
 62
7
  6
CONTINUOUS
 10
454.9587883944
 20
405.9258783155
  0
SEQEND
  0
LINE
  8
0
 62
7
  6
CONTINUOUS
 10
454.9587883944
 20
-219.0741216845
 11
454.7108213467
 21
-219.4243804176
  0
LINE
  8
0
 62
7
  6
CONTINUOUS
 10
454.7108213467
 20
-219.4243804176
 11
454.5191378805
 21
-219.6912061526
  0
POLYLINE
  8
0
 62
7
  6
CONTINUOUS
 66
1
 70
0
  0
VERTEX
  8
0
 62
7
  6
CONTINUOUS
 10
454.5191378805
 20
-219.6912061526
  0
VERTEX
  8
0
 62
7
  6
CONTINUOUS
 10
454.33607488
 20
-219.9431003563
  0
VERTEX
  8
0
 62
7
  6
CONTINUOUS
 10
454.2821117633
 20
-220.0168945353
  0
SEQEND
  0
LINE
  8
0
 62
7
  6
CONTINUOUS
 10
454.2821117633
 20
-220.0168945353
 11
454.275392042
 21
-220.0259805629
  0
LINE
  8
0
 62
7
  6
CONTINUOUS
 10
454.275392042
 20
523.9740194371
 11
454.2821130491
 21
523.9649334239
  0
LINE
  8
0
 62
7
  6
CONTINUOUS
 10
454.2821130491
 20
523.9649334239
 11
454.4444574848
 21
523.7423925708
  0
LINE
  8
0
 62
7
  6
CONTINUOUS
 10
454.4444574848
 20
523.7423925708
 11
454.6080492901
 21
523.5158944932
  0
POLYLINE
  8
0
 62
7
  6
CONTINUOUS
 66
1
 70
0
  0
VERTEX
  8
0
 62
7
  6
CONTINUOUS
 10
454.6080492901
 20
523.5158944932
  0
VERTEX
  8
0
 62
7
  6
CONTINUOUS
 10
454.8278956984
 20
523.2078372801
  0
VERTEX
  8
0
 62
7
  6
CONTINUOUS
 10
454.9589817871
 20
523.0218850107
  0
VERTEX
  8
0
 62
7
  6
CONTINUOUS
 10
455.1043931164
 20
522.8136047306
  0
VERTEX
  8
0
 62
7
  6
CONTINUOUS
 10
455.263829957
 20
522.5825506495
  0
VERTEX
  8
0
 62
7
  6
CONTINUOUS
 10
455.4370667847
 20
522.3281341059
  0
VERTEX
  8
0
 62
7
  6
CONTINUOUS
 10
455.6235204454
 20
522.0500096359
  0
VERTEX
  8
0
 62
7
  6
CONTINUOUS
 10
455.8227919567
 20
521.74736131
  0
VERTEX
  8
0
 62
7
  6
CONTINUOUS
 10
456.0333498639
 20
521.4210118632
  0
VERTEX
  8
0
 62
7
  6
CONTINUOUS
 10
456.2536984477
 20
521.0711643212
  0
VERTEX
  8
0
 62
7
  6
CONTINUOUS
 10
456.4819096861
 20
520.6988618814
  0
VERTEX
  8
0
 62
7
  6
CONTINUOUS
 10
456.7163648207
 20
520.3037846938
  0
VERTEX
  8
0
 62
7
  6
CONTINUOUS
 10
456.9533021883
 20
519.8902249258
  0
VERTEX
  8
0
 62
7
  6
CONTINUOUS
 10
457.1888505294
 20
519.4609912288
  0
VERTEX
  8
0
 62
7
  6
CONTINUOUS
 10
457.419740549
 20
519.0202143001
  0
VERTEX
  8
0
 62
7
  6
CONTINUOUS
 10
457.6418369927
 20
518.5719713634
  0
VERTEX
  8
0
 62
7
  6
CONTINUOUS
 10
457.8529051377
 20
518.1192314909
  0
VERTEX
  8
0
 62
7
  6
CONTINUOUS
 10
458.0499107736
 20
517.6654026914
  0
VERTEX
  8
0
 62
7
  6
CONTINUOUS
 10
458.231342215
 20
517.2132453781
  0
VERTEX
  8
0
 62
7
  6
CONTINUOUS
 10
458.3949049962
 20
516.7668022562
  0
VERTEX
  8
0
 62
7
  6
CONTINUOUS
 10
458.540713507
 20
516.3256344581
  0
VERTEX
  8
0
 62
7
  6
CONTINUOUS
 10
458.6684111679
 20
515.8911299799
  0
VERTEX
  8
0
 62
7
  6
CONTINUOUS
 10
458.7782826509
 20
515.4618509361
  0
VERTEX
  8
0
 62
7
  6
CONTINUOUS
 10
458.8708476572
 20
515.0367553886
  0
VERTEX
  8
0
 62
7
  6
CONTINUOUS
 10
458.9460046933
 20
514.6160434926
  0
VERTEX
  8
0
 62
7
  6
CONTINUOUS
 10
459.0039804527
 20
514.1997868037
  0
VERTEX
  8
0
 62
7
  6
CONTINUOUS
 10
459.0449730505
 20
513.7873291823
  0
VERTEX
  8
0
 62
7
  6
CONTINUOUS
 10
459.0694152025
 20
513.3787325662
  0
VERTEX
  8
0
 62
7
  6
CONTINUOUS
 10
459.0773527975
 20
512.9719142783
  0
VERTEX
  8
0
 62
7
  6
CONTINUOUS
 10
459.0692688398
 20
512.5654048971
  0
VERTEX
  8
0
 62
7
  6
CONTINUOUS
 10
459.0447115234
 20
512.1574265933
  0
VERTEX
  8
0
 62
7
  6
CONTINUOUS
 10
459.0036832954
 20
511.7457150154
  0
VERTEX
  8
0
 62
7
  6
CONTINUOUS
 10
458.9457287332
 20
511.3302603088
  0
VERTEX
  8
0
 62
7
  6
CONTINUOUS
 10
458.8706572526
 20
510.9102980286
  0
VERTEX
  8
0
 62
7
  6
CONTINUOUS
 10
458.7781972432
 20
510.4858275949
  0
VERTEX
  8
0
 62
7
  6
CONTINUOUS
 10
458.6684125806
 20
510.0569176504
  0
VERTEX
  8
0
 62
7
  6
CONTINUOUS
 10
458.5407733483
 20
509.6225960831
  0
VERTEX
  8
0
 62
7
  6
CONTINUOUS
 10
458.3949612782
 20
509.1814124522
  0
VERTEX
  8
0
 62
7
  6
CONTINUOUS
 10
458.2313717293
 20
508.7348703873
  0
VERTEX
  8
0
 62
7
  6
CONTINUOUS
 10
458.049922582
 20
508.2826624583
  0
VERTEX
  8
0
 62
7
  6
CONTINUOUS
 10
457.8528889307
 20
507.8287714035
  0
VERTEX
  8
0
 62
7
  6
CONTINUOUS
 10
457.6417515792
 20
507.3759009018
  0
VERTEX
  8
0
 62
7
  6
CONTINUOUS
 10
457.419616176
 20
506.9275807015
  0
VERTEX
  8
0
 62
7
  6
CONTINUOUS
 10
457.1888098221
 20
506.4869565536
  0
VERTEX
  8
0
 62
7
  6
CONTINUOUS
 10
456.9533415794
 20
506.0578841289
  0
VERTEX
  8
0
 62
7
  6
CONTINUOUS
 10
456.7163818601
 20
505.6442880676
  0
VERTEX
  8
0
 62
7
  6
CONTINUOUS
 10
456.4818675514
 20
505.2491072117
  0
VERTEX
  8
0
 62
7
  6
CONTINUOUS
 10
456.2535787408
 20
504.8766861205
  0
VERTEX
  8
0
 62
7
  6
CONTINUOUS
 10
456.0331618572
 20
504.5267322829
  0
VERTEX
  8
0
 62
7
  6
CONTINUOUS
 10
455.8225762831
 20
504.2003457873
  0
VERTEX
  8
0
 62
7
  6
CONTINUOUS
 10
455.6232971683
 20
503.8976933941
  0
VERTEX
  8
0
 62
7
  6
CONTINUOUS
 10
455.4368512971
 20
503.6195844687
  0
VERTEX
  8
0
 62
7
  6
CONTINUOUS
 10
455.2636263258
 20
503.3651912835
  0
VERTEX
  8
0
 62
7
  6
CONTINUOUS
 10
455.1041907045
 20
503.1341445884
  0
VERTEX
  8
0
 62
7
  6
CONTINUOUS
 10
454.9587883944
 20
502.9258783155
  0
SEQEND
  0
LINE
  8
0
 62
7
  6
CONTINUOUS
 10
-85.724607958
 20
598.9740194371
 11
454.275392042
 21
598.9740194371
  0
LINE
  8
0
 62
7
  6
CONTINUOUS
 10
454.275392042
 20
620.9740194371
 11
-85.724607958
 21
620.9740194371
  0
LINE
  8
0
 62
7
  6
CONTINUOUS
 10
454.9587883944
 20
-316.0741216845
 11
454.7108213467
 21
-316.4243804176
  0
LINE
  8
0
 62
7
  6
CONTINUOUS
 10
454.7108213467
 20
-316.4243804176
 11
454.5191378805
 21
-316.6912061526
  0
POLYLINE
  8
0
 62
7
  6
CONTINUOUS
 66
1
 70
0
  0
VERTEX
  8
0
 62
7
  6
CONTINUOUS
 10
454.5191378805
 20
-316.6912061526
  0
VERTEX
  8
0
 62
7
  6
CONTINUOUS
 10
454.33607488
 20
-316.9431003563
  0
VERTEX
  8
0
 62
7
  6
CONTINUOUS
 10
454.2821117633
 20
-317.0168945353
  0
SEQEND
  0
LINE
  8
0
 62
7
  6
CONTINUOUS
 10
454.2821117633
 20
-317.0168945353
 11
454.275392042
 21
-317.0259805629
  0
LINE
  8
0
 62
7
  6
CONTINUOUS
 10
-85.724607958
 20
664.4740194371
 11
-115.724607958
 21
664.4740194371
  0
LINE
  8
0
 62
7
  6
CONTINUOUS
 10
454.275392042
 20
664.4740194371
 11
484.275392042
 21
664.4740194371
  0
LINE
  8
0
 62
7
  6
CONTINUOUS
 10
454.275392042
 20
620.9740194371
 11
454.2821130491
 21
620.9649334239
  0
LINE
  8
0
 62
7
  6
CONTINUOUS
 10
454.2821130491
 20
620.9649334239
 11
454.4444574848
 21
620.7423925708
  0
LINE
  8
0
 62
7
  6
CONTINUOUS
 10
454.4444574848
 20
620.7423925708
 11
454.6080492901
 21
620.5158944932
  0
POLYLINE
  8
0
 62
7
  6
CONTINUOUS
 66
1
 70
0
  0
VERTEX
  8
0
 62
7
  6
CONTINUOUS
 10
454.6080492901
 20
620.5158944932
  0
VERTEX
  8
0
 62
7
  6
CONTINUOUS
 10
454.8278956984
 20
620.2078372801
  0
VERTEX
  8
0
 62
7
  6
CONTINUOUS
 10
454.9589817871
 20
620.0218850107
  0
VERTEX
  8
0
 62
7
  6
CONTINUOUS
 10
455.1043931164
 20
619.8136047306
  0
VERTEX
  8
0
 62
7
  6
CONTINUOUS
 10
455.263829957
 20
619.5825506495
  0
VERTEX
  8
0
 62
7
  6
CONTINUOUS
 10
455.4370667847
 20
619.3281341059
  0
VERTEX
  8
0
 62
7
  6
CONTINUOUS
 10
455.6235204454
 20
619.0500096359
  0
VERTEX
  8
0
 62
7
  6
CONTINUOUS
 10
455.8227919567
 20
618.74736131
  0
VERTEX
  8
0
 62
7
  6
CONTINUOUS
 10
456.0333498639
 20
618.4210118632
  0
VERTEX
  8
0
 62
7
  6
CONTINUOUS
 10
456.2536984477
 20
618.0711643212
  0
VERTEX
  8
0
 62
7
  6
CONTINUOUS
 10
456.4819096861
 20
617.6988618814
  0
VERTEX
  8
0
 62
7
  6
CONTINUOUS
 10
456.7163648207
 20
617.3037846938
  0
VERTEX
  8
0
 62
7
  6
CONTINUOUS
 10
456.9533021883
 20
616.8902249258
  0
VERTEX
  8
0
 62
7
  6
CONTINUOUS
 10
457.1888505294
 20
616.4609912288
  0
VERTEX
  8
0
 62
7
  6
CONTINUOUS
 10
457.419740549
 20
616.0202143001
  0
VERTEX
  8
0
 62
7
  6
CONTINUOUS
 10
457.6418369927
 20
615.5719713634
  0
VERTEX
  8
0
 62
7
  6
CONTINUOUS
 10
457.8529051377
 20
615.1192314909
  0
VERTEX
  8
0
 62
7
  6
CONTINUOUS
 10
458.0499107736
 20
614.6654026914
  0
VERTEX
  8
0
 62
7
  6
CONTINUOUS
 10
458.231342215
 20
614.2132453781
  0
VERTEX
  8
0
 62
7
  6
CONTINUOUS
 10
458.3949049962
 20
613.7668022562
  0
VERTEX
  8
0
 62
7
  6
CONTINUOUS
 10
458.540713507
 20
613.3256344581
  0
VERTEX
  8
0
 62
7
  6
CONTINUOUS
 10
458.6684111679
 20
612.8911299799
  0
VERTEX
  8
0
 62
7
  6
CONTINUOUS
 10
458.7782826509
 20
612.4618509361
  0
VERTEX
  8
0
 62
7
  6
CONTINUOUS
 10
458.8708476572
 20
612.0367553886
  0
VERTEX
  8
0
 62
7
  6
CONTINUOUS
 10
458.9460046933
 20
611.6160434926
  0
VERTEX
  8
0
 62
7
  6
CONTINUOUS
 10
459.0039804527
 20
611.1997868037
  0
VERTEX
  8
0
 62
7
  6
CONTINUOUS
 10
459.0449730505
 20
610.7873291823
  0
VERTEX
  8
0
 62
7
  6
CONTINUOUS
 10
459.0694152025
 20
610.3787325662
  0
VERTEX
  8
0
 62
7
  6
CONTINUOUS
 10
459.0773527975
 20
609.9719142783
  0
VERTEX
  8
0
 62
7
  6
CONTINUOUS
 10
459.0692688398
 20
609.5654048971
  0
VERTEX
  8
0
 62
7
  6
CONTINUOUS
 10
459.0447115234
 20
609.1574265933
  0
VERTEX
  8
0
 62
7
  6
CONTINUOUS
 10
459.0036832954
 20
608.7457150154
  0
VERTEX
  8
0
 62
7
  6
CONTINUOUS
 10
458.9457287332
 20
608.3302603088
  0
VERTEX
  8
0
 62
7
  6
CONTINUOUS
 10
458.8706572526
 20
607.9102980286
  0
VERTEX
  8
0
 62
7
  6
CONTINUOUS
 10
458.7781972432
 20
607.4858275949
  0
VERTEX
  8
0
 62
7
  6
CONTINUOUS
 10
458.6684125806
 20
607.0569176504
  0
VERTEX
  8
0
 62
7
  6
CONTINUOUS
 10
458.5407733483
 20
606.6225960831
  0
VERTEX
  8
0
 62
7
  6
CONTINUOUS
 10
458.3949612782
 20
606.1814124522
  0
VERTEX
  8
0
 62
7
  6
CONTINUOUS
 10
458.2313717293
 20
605.7348703873
  0
VERTEX
  8
0
 62
7
  6
CONTINUOUS
 10
458.049922582
 20
605.2826624583
  0
VERTEX
  8
0
 62
7
  6
CONTINUOUS
 10
457.8528889307
 20
604.8287714035
  0
VERTEX
  8
0
 62
7
  6
CONTINUOUS
 10
457.6417515792
 20
604.3759009018
  0
VERTEX
  8
0
 62
7
  6
CONTINUOUS
 10
457.419616176
 20
603.9275807015
  0
VERTEX
  8
0
 62
7
  6
CONTINUOUS
 10
457.1888098221
 20
603.4869565536
  0
VERTEX
  8
0
 62
7
  6
CONTINUOUS
 10
456.9533415794
 20
603.0578841289
  0
VERTEX
  8
0
 62
7
  6
CONTINUOUS
 10
456.7163818601
 20
602.6442880676
  0
VERTEX
  8
0
 62
7
  6
CONTINUOUS
 10
456.4818675514
 20
602.2491072117
  0
VERTEX
  8
0
 62
7
  6
CONTINUOUS
 10
456.2535787408
 20
601.8766861205
  0
VERTEX
  8
0
 62
7
  6
CONTINUOUS
 10
456.0331618572
 20
601.5267322829
  0
VERTEX
  8
0
 62
7
  6
CONTINUOUS
 10
455.8225762831
 20
601.2003457873
  0
VERTEX
  8
0
 62
7
  6
CONTINUOUS
 10
455.6232971683
 20
600.8976933941
  0
VERTEX
  8
0
 62
7
  6
CONTINUOUS
 10
455.4368512971
 20
600.6195844687
  0
VERTEX
  8
0
 62
7
  6
CONTINUOUS
 10
455.2636263258
 20
600.3651912835
  0
VERTEX
  8
0
 62
7
  6
CONTINUOUS
 10
455.1041907045
 20
600.1341445884
  0
VERTEX
  8
0
 62
7
  6
CONTINUOUS
 10
454.9587883944
 20
599.9258783155
  0
SEQEND
  0
ENDSEC
  0
EOF
