999
DXF file: K:\Client\125_Heirloom\001\00\Final_Data\Drawings\LADDER TOWEL WARMERS\wg510n_SIDE.dxf
999
Pro/ENGINEER 2017110 by Parametric Technology Corporation
  0
SECTION
  2
HEADER
  9
$EXTMAX
 10
420.0
 20
297.0
 30
0.0
  9
$EXTMIN
 10
0.0
 20
0.0
 30
0.0
  9
$LIMMIN
 10
0.0
 20
0.0
  9
$LIMMAX
 10
420.0
 20
297.0
  9
$VIEWCTR
 10
210.0
 20
148.5
  9
$VIEWSIZE
 40
297.0
  9
$CLAYER
  8
0
  9
$LTSCALE
 40
23.1
  9
$CELTYPE
  6
BYLAYER
  9
$DIMSCALE
 40
1.0
  9
$DIMASZ
 40
3.0
  9
$DIMEXO
 40
1.0
  9
$DIMDLI
 40
15.96
  9
$DIMEXE
 40
1.0
  9
$DIMCEN
 40
3.78
  9
$DIMLFAC
 40
1.0
  9
$DIMBLK
  1
_FILLED
  9
$DIMALT
 70
0
  9
$DIMALTF
 40
0.0393700787
  9
$DIMTXT
 40
3.0
  9
$AUNITS
 70
0
  9
$PDMODE
 70
3
  9
$PDSIZE
 40
5.0
  9
$TILEMODE
 70
1
  0
ENDSEC
  0
SECTION
  2
TABLES
  0
TABLE
  2
LTYPE
 70
6
  0
LTYPE
  2
BYBLOCK
 70
0
  3

 72
65
 73
0
 40
0.0
  0
LTYPE
  2
BYLAYER
 70
0
  3

 72
65
 73
0
 40
0.0
  0
LTYPE
  2
CONTINUOUS
 70
64
  3
Solid line
 72
65
 73
0
 40
0.0
  0
LTYPE
  2
CENTER
 70
64
  3
____ _ ____ _ ____ _ ____ _ ____ _ ____ _ ____
 72
65
 73
4
 40
0.6
 49
0.375
 49
-0.075
 49
0.075
 49
-0.075
  0
LTYPE
  2
HIDDEN
 70
64
  3
- - - - - - - - - - - - - - - - - - - -
 72
65
 73
2
 40
0.2
 49
0.1
 49
-0.1
  0
LTYPE
  2
PHANTOM
 70
64
  3
_____ _ _ _____ _ _ _____ _ _ _____
 72
65
 73
6
 40
0.8
 49
0.45
 49
-0.05
 49
0.1
 49
-0.05
 49
0.1
 49
-0.05
  0
LTYPE
  2
DOT
 70
64
  3
. . . . . . . . . . . . . . . . . . . .
 72
65
 73
2
 40
0.2
 49
0.1
 49
-0.1
  0
LTYPE
  2
DASHED
 70
64
  3
- - - - - - - - - - - - - - - - - - - -
 72
65
 73
2
 40
0.2
 49
0.1
 49
-0.1
  0
ENDTAB
  0
TABLE
  2
LAYER
 70
36
  0
LAYER
  2
0
 70
0
 62
7
  6
CONTINUOUS
  0
LAYER
  2
DEFAULT_1
 70
0
 62
7
  6
CENTER
  0
LAYER
  2
DEFAULT_2
 70
0
 62
8
  6
HIDDEN
  0
LAYER
  2
DEFAULT_3
 70
0
 62
7
  6
PHANTOM
  0
LAYER
  2
0000_BOM
 70
0
 62
7
  6
CONTINUOUS
  0
LAYER
  2
0000_REV_TABLE
 70
0
 62
7
  6
CONTINUOUS
  0
LAYER
  2
0000_STEVENS_NOTE
 70
0
 62
7
  6
CONTINUOUS
  0
LAYER
  2
01_DATUM_PLANES
 70
0
 62
7
  6
CONTINUOUS
  0
LAYER
  2
01_DEF_PLANES
 70
0
 62
7
  6
CONTINUOUS
  0
LAYER
  2
02_DATUM_COS
 70
0
 62
7
  6
CONTINUOUS
  0
LAYER
  2
99_SOLID
 70
0
 62
7
  6
CONTINUOUS
  0
LAYER
  2
CAD-MASTER_ZINC-PL
 70
0
 62
7
  6
CONTINUOUS
  0
LAYER
  2
CURVE
 70
0
 62
7
  6
CONTINUOUS
  0
LAYER
  2
SKEL
 70
0
 62
7
  6
CONTINUOUS
  0
LAYER
  2
SKETCH
 70
0
 62
7
  6
CONTINUOUS
  0
LAYER
  2
SURFACE
 70
0
 62
7
  6
CONTINUOUS
  0
ENDTAB
  0
TABLE
  2
STYLE
 70
1
  0
STYLE
  2
STANDARD
 70
0
 40
0.0
 41
0.75
 50
0.0
 71
0
 42
0.2
  3
txt
  4

  0
STYLE
  2
TEXTSTYLE_1
 70
0
 40
0.0
 41
0.8
 50
0.0
 71
0
 42
0.2
  3
gdt
  4

  0
ENDTAB
  0
ENDSEC
  0
SECTION
  2
BLOCKS
  0
ENDSEC
  0
SECTION
  2
ENTITIES
  0
LINE
  8
0
 62
7
  6
CONTINUOUS
 10
117.2073269735
 20
-102.4191740561
 11
147.2073269735
 21
-102.4191740561
  0
LINE
  8
0
 62
7
  6
CONTINUOUS
 10
147.2073269735
 20
-14.9191740561
 11
239.2073269735
 21
-14.9191740561
  0
LINE
  8
0
 62
7
  6
CONTINUOUS
 10
147.2073269735
 20
10.0808259439
 11
239.2073269735
 21
10.0808259439
  0
LINE
  8
0
 62
7
  6
CONTINUOUS
 10
145.5162684954
 20
317.9913081239
 11
145.9014944666
 21
318.4794898193
  0
LINE
  8
0
 62
7
  6
CONTINUOUS
 10
145.9014944666
 20
318.4794898193
 11
146.2345684769
 21
318.8951351859
  0
LINE
  8
0
 62
7
  6
CONTINUOUS
 10
146.2345684769
 20
318.8951351859
 11
146.5161876232
 21
319.242473386
  0
LINE
  8
0
 62
7
  6
CONTINUOUS
 10
146.5161876232
 20
319.242473386
 11
146.8448578301
 21
319.6434670137
  0
LINE
  8
0
 62
7
  6
CONTINUOUS
 10
146.8448578301
 20
319.6434670137
 11
147.1565742981
 21
320.019882853
  0
LINE
  8
0
 62
7
  6
CONTINUOUS
 10
147.1565742981
 20
320.019882853
 11
147.2073269735
 21
320.0808259439
  0
LINE
  8
0
 62
7
  6
CONTINUOUS
 10
147.2073269735
 20
-14.9191740561
 11
146.9302993834
 21
-14.5853897029
  0
LINE
  8
0
 62
7
  6
CONTINUOUS
 10
146.9302993834
 20
-14.5853897029
 11
146.6380787953
 21
-14.2300418541
  0
LINE
  8
0
 62
7
  6
CONTINUOUS
 10
146.6380787953
 20
-14.2300418541
 11
146.3819982542
 21
-13.9157520651
  0
LINE
  8
0
 62
7
  6
CONTINUOUS
 10
146.3819982542
 20
-13.9157520651
 11
146.0740606925
 21
-13.5338627173
  0
POLYLINE
  8
0
 62
7
  6
CONTINUOUS
 66
1
 70
0
  0
VERTEX
  8
0
 62
7
  6
CONTINUOUS
 10
146.0740606925
 20
-13.5338627173
  0
VERTEX
  8
0
 62
7
  6
CONTINUOUS
 10
145.7134975068
 20
-13.0806299827
  0
VERTEX
  8
0
 62
7
  6
CONTINUOUS
 10
145.5136191344
 20
-12.8262696551
  0
VERTEX
  8
0
 62
7
  6
CONTINUOUS
 10
145.3009284524
 20
-12.5528999103
  0
VERTEX
  8
0
 62
7
  6
CONTINUOUS
 10
145.0755987232
 20
-12.2600349878
  0
VERTEX
  8
0
 62
7
  6
CONTINUOUS
 10
144.8382709375
 20
-11.9475918378
  0
VERTEX
  8
0
 62
7
  6
CONTINUOUS
 10
144.5892698319
 20
-11.6149111648
  0
VERTEX
  8
0
 62
7
  6
CONTINUOUS
 10
144.330339417
 20
-11.2632359456
  0
VERTEX
  8
0
 62
7
  6
CONTINUOUS
 10
144.0630853107
 20
-10.8931498494
  0
VERTEX
  8
0
 62
7
  6
CONTINUOUS
 10
143.7894810461
 20
-10.5059715039
  0
VERTEX
  8
0
 62
7
  6
CONTINUOUS
 10
143.5113369754
 20
-10.1021912785
  0
VERTEX
  8
0
 62
7
  6
CONTINUOUS
 10
143.2318654333
 20
-9.6848776183
  0
VERTEX
  8
0
 62
7
  6
CONTINUOUS
 10
142.9541361902
 20
-9.2559199825
  0
VERTEX
  8
0
 62
7
  6
CONTINUOUS
 10
142.6816860008
 20
-8.8193456971
  0
VERTEX
  8
0
 62
7
  6
CONTINUOUS
 10
142.4182424576
 20
-8.3780890967
  0
VERTEX
  8
0
 62
7
  6
CONTINUOUS
 10
142.1672426043
 20
-7.937318615
  0
VERTEX
  8
0
 62
7
  6
CONTINUOUS
 10
141.9330976179
 20
-7.5022607041
  0
VERTEX
  8
0
 62
7
  6
CONTINUOUS
 10
141.7169540443
 20
-7.0756756428
  0
VERTEX
  8
0
 62
7
  6
CONTINUOUS
 10
141.5216213908
 20
-6.662593473
  0
VERTEX
  8
0
 62
7
  6
CONTINUOUS
 10
141.3458684964
 20
-6.261431357
  0
VERTEX
  8
0
 62
7
  6
CONTINUOUS
 10
141.189285017
 20
-5.8726553628
  0
VERTEX
  8
0
 62
7
  6
CONTINUOUS
 10
141.0510603883
 20
-5.4951488143
  0
VERTEX
  8
0
 62
7
  6
CONTINUOUS
 10
140.9302428045
 20
-5.1285490205
  0
VERTEX
  8
0
 62
7
  6
CONTINUOUS
 10
140.8259909034
 20
-4.7710600946
  0
VERTEX
  8
0
 62
7
  6
CONTINUOUS
 10
140.7370963107
 20
-4.4212375167
  0
VERTEX
  8
0
 62
7
  6
CONTINUOUS
 10
140.6631291552
 20
-4.077664495
  0
VERTEX
  8
0
 62
7
  6
CONTINUOUS
 10
140.6031736544
 20
-3.738526403
  0
VERTEX
  8
0
 62
7
  6
CONTINUOUS
 10
140.5571197706
 20
-3.4035722249
  0
VERTEX
  8
0
 62
7
  6
CONTINUOUS
 10
140.5245297499
 20
-3.0723108874
  0
VERTEX
  8
0
 62
7
  6
CONTINUOUS
 10
140.5052353424
 20
-2.7436479363
  0
VERTEX
  8
0
 62
7
  6
CONTINUOUS
 10
140.4988048052
 20
-2.4169879369
  0
VERTEX
  8
0
 62
7
  6
CONTINUOUS
 10
140.5054068733
 20
-2.0903427569
  0
VERTEX
  8
0
 62
7
  6
CONTINUOUS
 10
140.5248647387
 20
-1.7617485855
  0
VERTEX
  8
0
 62
7
  6
CONTINUOUS
 10
140.5576205719
 20
-1.4305370244
  0
VERTEX
  8
0
 62
7
  6
CONTINUOUS
 10
140.603846384
 20
-1.0955444449
  0
VERTEX
  8
0
 62
7
  6
CONTINUOUS
 10
140.6639914645
 20
-0.7562927273
  0
VERTEX
  8
0
 62
7
  6
CONTINUOUS
 10
140.7381792781
 20
-0.4125074179
  0
VERTEX
  8
0
 62
7
  6
CONTINUOUS
 10
140.8273222452
 20
-0.0624138892
  0
VERTEX
  8
0
 62
7
  6
CONTINUOUS
 10
140.9318546979
 20
0.2953813595
  0
VERTEX
  8
0
 62
7
  6
CONTINUOUS
 10
141.0529732872
 20
0.6622961624
  0
VERTEX
  8
0
 62
7
  6
CONTINUOUS
 10
141.1915126259
 20
1.040094812
  0
VERTEX
  8
0
 62
7
  6
CONTINUOUS
 10
141.3484130763
 20
1.4291314334
  0
VERTEX
  8
0
 62
7
  6
CONTINUOUS
 10
141.5244713167
 20
1.83049839
  0
VERTEX
  8
0
 62
7
  6
CONTINUOUS
 10
141.7200982072
 20
2.2437452596
  0
VERTEX
  8
0
 62
7
  6
CONTINUOUS
 10
141.9365398538
 20
2.6704896598
  0
VERTEX
  8
0
 62
7
  6
CONTINUOUS
 10
142.1709281059
 20
3.1056198338
  0
VERTEX
  8
0
 62
7
  6
CONTINUOUS
 10
142.4220386787
 20
3.5462529862
  0
VERTEX
  8
0
 62
7
  6
CONTINUOUS
 10
142.6855503044
 20
3.9873198503
  0
VERTEX
  8
0
 62
7
  6
CONTINUOUS
 10
142.9581008011
 20
4.4237991049
  0
VERTEX
  8
0
 62
7
  6
CONTINUOUS
 10
143.2359094048
 20
4.8526641191
  0
VERTEX
  8
0
 62
7
  6
CONTINUOUS
 10
143.5154174105
 20
5.269844132
  0
VERTEX
  8
0
 62
7
  6
CONTINUOUS
 10
143.7935501521
 20
5.6734502121
  0
VERTEX
  8
0
 62
7
  6
CONTINUOUS
 10
144.0670849478
 20
6.0603964109
  0
VERTEX
  8
0
 62
7
  6
CONTINUOUS
 10
144.334217531
 20
6.4302030178
  0
VERTEX
  8
0
 62
7
  6
CONTINUOUS
 10
144.5929648365
 20
6.7815403743
  0
VERTEX
  8
0
 62
7
  6
CONTINUOUS
 10
144.8417630226
 20
7.1138723762
  0
VERTEX
  8
0
 62
7
  6
CONTINUOUS
 10
145.0789575982
 20
7.4260655603
  0
VERTEX
  8
0
 62
7
  6
CONTINUOUS
 10
145.3040481227
 20
7.7185823456
  0
VERTEX
  8
0
 62
7
  6
CONTINUOUS
 10
145.5162684954
 20
7.9913081239
  0
SEQEND
  0
LINE
  8
0
 62
7
  6
CONTINUOUS
 10
117.2073269735
 20
-102.4191740561
 11
117.2073269735
 21
407.5808259439
  0
LINE
  8
0
 62
7
  6
CONTINUOUS
 10
147.2073269735
 20
-102.4191740561
 11
147.2073269735
 21
-14.9191740561
  0
LINE
  8
0
 62
7
  6
CONTINUOUS
 10
147.2073269735
 20
10.0808259439
 11
147.2073269735
 21
295.0808259439
  0
LINE
  8
0
 62
7
  6
CONTINUOUS
 10
147.2073269735
 20
320.0808259439
 11
147.2073269735
 21
407.5808259439
  0
LINE
  8
0
 62
7
  6
CONTINUOUS
 10
239.2073269735
 20
-14.9191740561
 11
239.2073269735
 21
10.0808259439
  0
LINE
  8
0
 62
7
  6
CONTINUOUS
 10
239.2073269735
 20
295.0808259439
 11
239.2073269735
 21
320.0808259439
  0
LINE
  8
0
 62
7
  6
CONTINUOUS
 10
145.5162684954
 20
7.9913081239
 11
145.9014944666
 21
8.4794898193
  0
LINE
  8
0
 62
7
  6
CONTINUOUS
 10
145.9014944666
 20
8.4794898193
 11
146.2345684769
 21
8.8951351859
  0
LINE
  8
0
 62
7
  6
CONTINUOUS
 10
146.2345684769
 20
8.8951351859
 11
146.5161876232
 21
9.242473386
  0
LINE
  8
0
 62
7
  6
CONTINUOUS
 10
146.5161876232
 20
9.242473386
 11
146.8448578301
 21
9.6434670137
  0
LINE
  8
0
 62
7
  6
CONTINUOUS
 10
146.8448578301
 20
9.6434670137
 11
147.1565742981
 21
10.019882853
  0
LINE
  8
0
 62
7
  6
CONTINUOUS
 10
147.1565742981
 20
10.019882853
 11
147.2073269735
 21
10.0808259439
  0
LINE
  8
0
 62
7
  6
CONTINUOUS
 10
147.2073269735
 20
295.0808259439
 11
146.9302993834
 21
295.4146102971
  0
LINE
  8
0
 62
7
  6
CONTINUOUS
 10
146.9302993834
 20
295.4146102971
 11
146.6380787953
 21
295.7699581459
  0
LINE
  8
0
 62
7
  6
CONTINUOUS
 10
146.6380787953
 20
295.7699581459
 11
146.3819982542
 21
296.0842479349
  0
LINE
  8
0
 62
7
  6
CONTINUOUS
 10
146.3819982542
 20
296.0842479349
 11
146.0740606925
 21
296.4661372827
  0
POLYLINE
  8
0
 62
7
  6
CONTINUOUS
 66
1
 70
0
  0
VERTEX
  8
0
 62
7
  6
CONTINUOUS
 10
146.0740606925
 20
296.4661372827
  0
VERTEX
  8
0
 62
7
  6
CONTINUOUS
 10
145.7134975068
 20
296.9193700173
  0
VERTEX
  8
0
 62
7
  6
CONTINUOUS
 10
145.5136191344
 20
297.1737303449
  0
VERTEX
  8
0
 62
7
  6
CONTINUOUS
 10
145.3009284524
 20
297.4471000897
  0
VERTEX
  8
0
 62
7
  6
CONTINUOUS
 10
145.0755987232
 20
297.7399650122
  0
VERTEX
  8
0
 62
7
  6
CONTINUOUS
 10
144.8382709375
 20
298.0524081622
  0
VERTEX
  8
0
 62
7
  6
CONTINUOUS
 10
144.5892698319
 20
298.3850888352
  0
VERTEX
  8
0
 62
7
  6
CONTINUOUS
 10
144.330339417
 20
298.7367640544
  0
VERTEX
  8
0
 62
7
  6
CONTINUOUS
 10
144.0630853107
 20
299.1068501506
  0
VERTEX
  8
0
 62
7
  6
CONTINUOUS
 10
143.7894810461
 20
299.4940284961
  0
VERTEX
  8
0
 62
7
  6
CONTINUOUS
 10
143.5113369754
 20
299.8978087215
  0
VERTEX
  8
0
 62
7
  6
CONTINUOUS
 10
143.2318654333
 20
300.3151223817
  0
VERTEX
  8
0
 62
7
  6
CONTINUOUS
 10
142.9541361902
 20
300.7440800175
  0
VERTEX
  8
0
 62
7
  6
CONTINUOUS
 10
142.6816860008
 20
301.1806543029
  0
VERTEX
  8
0
 62
7
  6
CONTINUOUS
 10
142.4182424576
 20
301.6219109033
  0
VERTEX
  8
0
 62
7
  6
CONTINUOUS
 10
142.1672426043
 20
302.062681385
  0
VERTEX
  8
0
 62
7
  6
CONTINUOUS
 10
141.9330976179
 20
302.4977392959
  0
VERTEX
  8
0
 62
7
  6
CONTINUOUS
 10
141.7169540443
 20
302.9243243572
  0
VERTEX
  8
0
 62
7
  6
CONTINUOUS
 10
141.5216213908
 20
303.337406527
  0
VERTEX
  8
0
 62
7
  6
CONTINUOUS
 10
141.3458684964
 20
303.738568643
  0
VERTEX
  8
0
 62
7
  6
CONTINUOUS
 10
141.189285017
 20
304.1273446372
  0
VERTEX
  8
0
 62
7
  6
CONTINUOUS
 10
141.0510603883
 20
304.5048511857
  0
VERTEX
  8
0
 62
7
  6
CONTINUOUS
 10
140.9302428045
 20
304.8714509795
  0
VERTEX
  8
0
 62
7
  6
CONTINUOUS
 10
140.8259909034
 20
305.2289399054
  0
VERTEX
  8
0
 62
7
  6
CONTINUOUS
 10
140.7370963107
 20
305.5787624833
  0
VERTEX
  8
0
 62
7
  6
CONTINUOUS
 10
140.6631291552
 20
305.922335505
  0
VERTEX
  8
0
 62
7
  6
CONTINUOUS
 10
140.6031736544
 20
306.261473597
  0
VERTEX
  8
0
 62
7
  6
CONTINUOUS
 10
140.5571197706
 20
306.5964277751
  0
VERTEX
  8
0
 62
7
  6
CONTINUOUS
 10
140.5245297499
 20
306.9276891126
  0
VERTEX
  8
0
 62
7
  6
CONTINUOUS
 10
140.5052353424
 20
307.2563520637
  0
VERTEX
  8
0
 62
7
  6
CONTINUOUS
 10
140.4988048052
 20
307.5830120631
  0
VERTEX
  8
0
 62
7
  6
CONTINUOUS
 10
140.5054068733
 20
307.9096572431
  0
VERTEX
  8
0
 62
7
  6
CONTINUOUS
 10
140.5248647387
 20
308.2382514145
  0
VERTEX
  8
0
 62
7
  6
CONTINUOUS
 10
140.5576205719
 20
308.5694629756
  0
VERTEX
  8
0
 62
7
  6
CONTINUOUS
 10
140.603846384
 20
308.9044555551
  0
VERTEX
  8
0
 62
7
  6
CONTINUOUS
 10
140.6639914645
 20
309.2437072727
  0
VERTEX
  8
0
 62
7
  6
CONTINUOUS
 10
140.7381792781
 20
309.5874925821
  0
VERTEX
  8
0
 62
7
  6
CONTINUOUS
 10
140.8273222452
 20
309.9375861108
  0
VERTEX
  8
0
 62
7
  6
CONTINUOUS
 10
140.9318546979
 20
310.2953813595
  0
VERTEX
  8
0
 62
7
  6
CONTINUOUS
 10
141.0529732872
 20
310.6622961624
  0
VERTEX
  8
0
 62
7
  6
CONTINUOUS
 10
141.1915126259
 20
311.040094812
  0
VERTEX
  8
0
 62
7
  6
CONTINUOUS
 10
141.3484130763
 20
311.4291314333
  0
VERTEX
  8
0
 62
7
  6
CONTINUOUS
 10
141.5244713167
 20
311.83049839
  0
VERTEX
  8
0
 62
7
  6
CONTINUOUS
 10
141.7200982072
 20
312.2437452596
  0
VERTEX
  8
0
 62
7
  6
CONTINUOUS
 10
141.9365398538
 20
312.6704896598
  0
VERTEX
  8
0
 62
7
  6
CONTINUOUS
 10
142.1709281059
 20
313.1056198338
  0
VERTEX
  8
0
 62
7
  6
CONTINUOUS
 10
142.4220386787
 20
313.5462529862
  0
VERTEX
  8
0
 62
7
  6
CONTINUOUS
 10
142.6855503044
 20
313.9873198503
  0
VERTEX
  8
0
 62
7
  6
CONTINUOUS
 10
142.9581008011
 20
314.4237991049
  0
VERTEX
  8
0
 62
7
  6
CONTINUOUS
 10
143.2359094048
 20
314.8526641191
  0
VERTEX
  8
0
 62
7
  6
CONTINUOUS
 10
143.5154174105
 20
315.269844132
  0
VERTEX
  8
0
 62
7
  6
CONTINUOUS
 10
143.7935501521
 20
315.6734502121
  0
VERTEX
  8
0
 62
7
  6
CONTINUOUS
 10
144.0670849478
 20
316.0603964109
  0
VERTEX
  8
0
 62
7
  6
CONTINUOUS
 10
144.334217531
 20
316.4302030178
  0
VERTEX
  8
0
 62
7
  6
CONTINUOUS
 10
144.5929648365
 20
316.7815403743
  0
VERTEX
  8
0
 62
7
  6
CONTINUOUS
 10
144.8417630226
 20
317.1138723762
  0
VERTEX
  8
0
 62
7
  6
CONTINUOUS
 10
145.0789575982
 20
317.4260655603
  0
VERTEX
  8
0
 62
7
  6
CONTINUOUS
 10
145.3040481227
 20
317.7185823456
  0
VERTEX
  8
0
 62
7
  6
CONTINUOUS
 10
145.5162684954
 20
317.9913081239
  0
SEQEND
  0
LINE
  8
0
 62
7
  6
CONTINUOUS
 10
147.2073269735
 20
295.0808259439
 11
239.2073269735
 21
295.0808259439
  0
LINE
  8
0
 62
7
  6
CONTINUOUS
 10
147.2073269735
 20
320.0808259439
 11
239.2073269735
 21
320.0808259439
  0
LINE
  8
0
 62
7
  6
CONTINUOUS
 10
117.2073269735
 20
407.5808259439
 11
147.2073269735
 21
407.5808259439
  0
ENDSEC
  0
EOF
