999
DXF file: K:\Client\125_Heirloom\001\00\Final_Data\Drawings\SINGLE BAR TOWEL WARMERS\wgs632_3.dxf
999
Pro/ENGINEER 2017110 by Parametric Technology Corporation
  0
SECTION
  2
HEADER
  9
$EXTMAX
 10
420.0
 20
297.0
 30
0.0
  9
$EXTMIN
 10
0.0
 20
0.0
 30
0.0
  9
$LIMMIN
 10
0.0
 20
0.0
  9
$LIMMAX
 10
420.0
 20
297.0
  9
$VIEWCTR
 10
210.0
 20
148.5
  9
$VIEWSIZE
 40
297.0
  9
$CLAYER
  8
0
  9
$LTSCALE
 40
23.1
  9
$CELTYPE
  6
BYLAYER
  9
$DIMSCALE
 40
1.0
  9
$DIMASZ
 40
3.0
  9
$DIMEXO
 40
1.0
  9
$DIMDLI
 40
15.96
  9
$DIMEXE
 40
1.0
  9
$DIMCEN
 40
3.78
  9
$DIMLFAC
 40
1.0
  9
$DIMBLK
  1
_FILLED
  9
$DIMALT
 70
0
  9
$DIMALTF
 40
0.0393700787
  9
$DIMTXT
 40
3.0
  9
$AUNITS
 70
0
  9
$PDMODE
 70
3
  9
$PDSIZE
 40
5.0
  9
$TILEMODE
 70
1
  0
ENDSEC
  0
SECTION
  2
TABLES
  0
TABLE
  2
LTYPE
 70
6
  0
LTYPE
  2
BYBLOCK
 70
0
  3

 72
65
 73
0
 40
0.0
  0
LTYPE
  2
BYLAYER
 70
0
  3

 72
65
 73
0
 40
0.0
  0
LTYPE
  2
CONTINUOUS
 70
64
  3
Solid line
 72
65
 73
0
 40
0.0
  0
LTYPE
  2
CENTER
 70
64
  3
____ _ ____ _ ____ _ ____ _ ____ _ ____ _ ____
 72
65
 73
4
 40
0.6
 49
0.375
 49
-0.075
 49
0.075
 49
-0.075
  0
LTYPE
  2
HIDDEN
 70
64
  3
- - - - - - - - - - - - - - - - - - - -
 72
65
 73
2
 40
0.2
 49
0.1
 49
-0.1
  0
LTYPE
  2
PHANTOM
 70
64
  3
_____ _ _ _____ _ _ _____ _ _ _____
 72
65
 73
6
 40
0.8
 49
0.45
 49
-0.05
 49
0.1
 49
-0.05
 49
0.1
 49
-0.05
  0
LTYPE
  2
DOT
 70
64
  3
. . . . . . . . . . . . . . . . . . . .
 72
65
 73
2
 40
0.2
 49
0.1
 49
-0.1
  0
LTYPE
  2
DASHED
 70
64
  3
- - - - - - - - - - - - - - - - - - - -
 72
65
 73
2
 40
0.2
 49
0.1
 49
-0.1
  0
ENDTAB
  0
TABLE
  2
LAYER
 70
36
  0
LAYER
  2
0
 70
0
 62
7
  6
CONTINUOUS
  0
LAYER
  2
DEFAULT_1
 70
0
 62
7
  6
CENTER
  0
LAYER
  2
DEFAULT_2
 70
0
 62
8
  6
HIDDEN
  0
LAYER
  2
DEFAULT_3
 70
0
 62
7
  6
PHANTOM
  0
LAYER
  2
0000_BOM
 70
0
 62
7
  6
CONTINUOUS
  0
LAYER
  2
0000_REV_TABLE
 70
0
 62
7
  6
CONTINUOUS
  0
LAYER
  2
0000_STEVENS_NOTE
 70
0
 62
7
  6
CONTINUOUS
  0
LAYER
  2
01_DATUM_PLANES
 70
0
 62
7
  6
CONTINUOUS
  0
LAYER
  2
01_DEF_PLANES
 70
0
 62
7
  6
CONTINUOUS
  0
LAYER
  2
02_DATUM_COS
 70
0
 62
7
  6
CONTINUOUS
  0
LAYER
  2
99_SOLID
 70
0
 62
7
  6
CONTINUOUS
  0
LAYER
  2
CAD-MASTER_ZINC-PL
 70
0
 62
7
  6
CONTINUOUS
  0
LAYER
  2
CURVE
 70
0
 62
7
  6
CONTINUOUS
  0
LAYER
  2
SKEL
 70
0
 62
7
  6
CONTINUOUS
  0
LAYER
  2
SKETCH
 70
0
 62
7
  6
CONTINUOUS
  0
LAYER
  2
SURFACE
 70
0
 62
7
  6
CONTINUOUS
  0
ENDTAB
  0
TABLE
  2
STYLE
 70
1
  0
STYLE
  2
STANDARD
 70
0
 40
0.0
 41
0.75
 50
0.0
 71
0
 42
0.2
  3
txt
  4

  0
STYLE
  2
TEXTSTYLE_1
 70
0
 40
0.0
 41
0.8
 50
0.0
 71
0
 42
0.2
  3
gdt
  4

  0
ENDTAB
  0
ENDSEC
  0
SECTION
  2
BLOCKS
  0
ENDSEC
  0
SECTION
  2
ENTITIES
  0
LINE
  8
0
 62
7
  6
CONTINUOUS
 10
-145.9672956164
 20
209.7124807131
 11
-145.9672956164
 21
93.7124807131
  0
LINE
  8
0
 62
7
  6
CONTINUOUS
 10
-113.9672956164
 20
209.7124807131
 11
-113.9672956164
 21
125.7124807131
  0
POLYLINE
  8
0
 62
7
  6
CONTINUOUS
 66
1
 70
0
  0
VERTEX
  8
0
 62
7
  6
CONTINUOUS
 10
-115.0485059625
 20
124.631270367
  0
VERTEX
  8
0
 62
7
  6
CONTINUOUS
 10
-115.2442989551
 20
124.4354591126
  0
VERTEX
  8
0
 62
7
  6
CONTINUOUS
 10
-115.4584029059
 20
124.2213734237
  0
SEQEND
  0
POLYLINE
  8
0
 62
7
  6
CONTINUOUS
 66
1
 70
0
  0
VERTEX
  8
0
 62
7
  6
CONTINUOUS
 10
-132.8874505173
 20
106.7923258122
  0
VERTEX
  8
0
 62
7
  6
CONTINUOUS
 10
-133.5989000623
 20
106.0808373151
  0
VERTEX
  8
0
 62
7
  6
CONTINUOUS
 10
-134.2984803869
 20
105.3812959426
  0
VERTEX
  8
0
 62
7
  6
CONTINUOUS
 10
-134.9839076004
 20
104.6958207069
  0
VERTEX
  8
0
 62
7
  6
CONTINUOUS
 10
-135.6535769249
 20
104.0261994046
  0
VERTEX
  8
0
 62
7
  6
CONTINUOUS
 10
-136.3055191172
 20
103.3742049775
  0
VERTEX
  8
0
 62
7
  6
CONTINUOUS
 10
-136.9385436834
 20
102.7412326461
  0
VERTEX
  8
0
 62
7
  6
CONTINUOUS
 10
-137.5510562443
 20
102.1286688196
  0
VERTEX
  8
0
 62
7
  6
CONTINUOUS
 10
-138.1422992124
 20
101.5374771171
  0
VERTEX
  8
0
 62
7
  6
CONTINUOUS
 10
-138.7111019085
 20
100.9686285809
  0
VERTEX
  8
0
 62
7
  6
CONTINUOUS
 10
-139.2571092282
 20
100.4226671013
  0
VERTEX
  8
0
 62
7
  6
CONTINUOUS
 10
-139.7795907357
 20
99.9001471789
  0
VERTEX
  8
0
 62
7
  6
CONTINUOUS
 10
-140.2785017454
 20
99.4012745841
  0
VERTEX
  8
0
 62
7
  6
CONTINUOUS
 10
-140.7534996475
 20
98.9262451608
  0
VERTEX
  8
0
 62
7
  6
CONTINUOUS
 10
-141.2047477792
 20
98.4750285503
  0
VERTEX
  8
0
 62
7
  6
CONTINUOUS
 10
-141.632151668
 20
98.0476045344
  0
VERTEX
  8
0
 62
7
  6
CONTINUOUS
 10
-142.0361421337
 20
97.6436341958
  0
VERTEX
  8
0
 62
7
  6
CONTINUOUS
 10
-142.4169356354
 20
97.262830556
  0
VERTEX
  8
0
 62
7
  6
CONTINUOUS
 10
-142.7750807827
 20
96.9046955468
  0
VERTEX
  8
0
 62
7
  6
CONTINUOUS
 10
-143.1110343776
 20
96.5687335059
  0
VERTEX
  8
0
 62
7
  6
CONTINUOUS
 10
-144.476188327
 20
95.2035880025
  0
SEQEND
  0
POLYLINE
  8
0
 62
7
  6
CONTINUOUS
 66
1
 70
0
  0
VERTEX
  8
0
 62
7
  6
CONTINUOUS
 10
-115.4584029059
 20
124.2213734237
  0
VERTEX
  8
0
 62
7
  6
CONTINUOUS
 10
-116.8235568552
 20
122.8562279203
  0
VERTEX
  8
0
 62
7
  6
CONTINUOUS
 10
-117.1595104502
 20
122.5202658794
  0
VERTEX
  8
0
 62
7
  6
CONTINUOUS
 10
-117.5176555975
 20
122.1621308702
  0
VERTEX
  8
0
 62
7
  6
CONTINUOUS
 10
-117.8984490992
 20
121.7813272303
  0
VERTEX
  8
0
 62
7
  6
CONTINUOUS
 10
-118.3024395649
 20
121.3773568918
  0
VERTEX
  8
0
 62
7
  6
CONTINUOUS
 10
-118.7298434537
 20
120.9499328759
  0
VERTEX
  8
0
 62
7
  6
CONTINUOUS
 10
-119.1810915854
 20
120.4987162653
  0
VERTEX
  8
0
 62
7
  6
CONTINUOUS
 10
-119.6560894874
 20
120.0236868421
  0
VERTEX
  8
0
 62
7
  6
CONTINUOUS
 10
-120.1550004972
 20
119.5248142472
  0
VERTEX
  8
0
 62
7
  6
CONTINUOUS
 10
-120.6774820047
 20
119.0022943248
  0
VERTEX
  8
0
 62
7
  6
CONTINUOUS
 10
-121.2234893243
 20
118.4563328453
  0
VERTEX
  8
0
 62
7
  6
CONTINUOUS
 10
-121.7922920204
 20
117.8874843091
  0
VERTEX
  8
0
 62
7
  6
CONTINUOUS
 10
-122.3835349885
 20
117.2962926066
  0
VERTEX
  8
0
 62
7
  6
CONTINUOUS
 10
-122.9960475494
 20
116.6837287801
  0
VERTEX
  8
0
 62
7
  6
CONTINUOUS
 10
-123.6290721156
 20
116.0507564486
  0
VERTEX
  8
0
 62
7
  6
CONTINUOUS
 10
-124.281014308
 20
115.3987620215
  0
VERTEX
  8
0
 62
7
  6
CONTINUOUS
 10
-124.9506836325
 20
114.7291407193
  0
VERTEX
  8
0
 62
7
  6
CONTINUOUS
 10
-125.6361108459
 20
114.0436654836
  0
VERTEX
  8
0
 62
7
  6
CONTINUOUS
 10
-126.3356911706
 20
113.3441241111
  0
VERTEX
  8
0
 62
7
  6
CONTINUOUS
 10
-127.0471407155
 20
112.632635614
  0
SEQEND
  0
POLYLINE
  8
0
 62
7
  6
CONTINUOUS
 66
1
 70
0
  0
VERTEX
  8
0
 62
7
  6
CONTINUOUS
 10
-144.476188327
 20
95.2035880025
  0
VERTEX
  8
0
 62
7
  6
CONTINUOUS
 10
-144.6902922778
 20
94.9895023136
  0
VERTEX
  8
0
 62
7
  6
CONTINUOUS
 10
-144.8860852704
 20
94.7936910592
  0
SEQEND
  0
LINE
  8
0
 62
7
  6
CONTINUOUS
 10
-114.3260277725
 20
125.3537459216
 11
-115.0485059625
 21
124.631270367
  0
LINE
  8
0
 62
7
  6
CONTINUOUS
 10
-144.8860852704
 20
94.7936910592
 11
-145.6085634604
 21
94.0712155046
  0
LINE
  8
0
 62
7
  6
CONTINUOUS
 10
-127.0471407155
 20
112.632635614
 11
-132.8874505173
 21
106.7923258122
  0
LINE
  8
0
 62
7
  6
CONTINUOUS
 10
-113.9672956164
 20
125.7124807131
 11
-114.3260277725
 21
125.3537459216
  0
LINE
  8
0
 62
7
  6
CONTINUOUS
 10
-145.6085634604
 20
94.0712155046
 11
-145.9672956164
 21
93.7124807131
  0
LINE
  8
0
 62
7
  6
CONTINUOUS
 10
-145.9672956164
 20
93.7124807131
 11
518.0327043836
 21
93.7124807131
  0
LINE
  8
0
 62
7
  6
CONTINUOUS
 10
-113.9672956164
 20
125.7124807131
 11
486.0327043836
 21
125.7124807131
  0
LINE
  8
0
 62
7
  6
CONTINUOUS
 10
-113.9672956164
 20
209.7124807131
 11
-145.9672956164
 21
209.7124807131
  0
LINE
  8
0
 62
7
  6
CONTINUOUS
 10
486.0327043836
 20
209.7124807131
 11
518.0327043836
 21
209.7124807131
  0
POLYLINE
  8
0
 62
7
  6
CONTINUOUS
 66
1
 70
0
  0
VERTEX
  8
0
 62
7
  6
CONTINUOUS
 10
487.1139147296
 20
124.631270367
  0
VERTEX
  8
0
 62
7
  6
CONTINUOUS
 10
487.3097259841
 20
124.4354773745
  0
VERTEX
  8
0
 62
7
  6
CONTINUOUS
 10
487.523811673
 20
124.2213734237
  0
SEQEND
  0
POLYLINE
  8
0
 62
7
  6
CONTINUOUS
 66
1
 70
0
  0
VERTEX
  8
0
 62
7
  6
CONTINUOUS
 10
504.9528592845
 20
106.7923258122
  0
VERTEX
  8
0
 62
7
  6
CONTINUOUS
 10
505.6643477816
 20
106.0808762672
  0
VERTEX
  8
0
 62
7
  6
CONTINUOUS
 10
506.3638891541
 20
105.3812959426
  0
VERTEX
  8
0
 62
7
  6
CONTINUOUS
 10
507.0493643897
 20
104.6958687292
  0
VERTEX
  8
0
 62
7
  6
CONTINUOUS
 10
507.718985692
 20
104.0261994046
  0
VERTEX
  8
0
 62
7
  6
CONTINUOUS
 10
508.3709801191
 20
103.3742572123
  0
VERTEX
  8
0
 62
7
  6
CONTINUOUS
 10
509.0039524506
 20
102.7412326461
  0
VERTEX
  8
0
 62
7
  6
CONTINUOUS
 10
509.6165162771
 20
102.1287200852
  0
VERTEX
  8
0
 62
7
  6
CONTINUOUS
 10
510.2077079796
 20
101.5374771171
  0
VERTEX
  8
0
 62
7
  6
CONTINUOUS
 10
510.7765565158
 20
100.968674421
  0
VERTEX
  8
0
 62
7
  6
CONTINUOUS
 10
511.3225179953
 20
100.4226671013
  0
VERTEX
  8
0
 62
7
  6
CONTINUOUS
 10
511.8450379177
 20
99.9001855938
  0
VERTEX
  8
0
 62
7
  6
CONTINUOUS
 10
512.3439105126
 20
99.4012745841
  0
VERTEX
  8
0
 62
7
  6
CONTINUOUS
 10
512.8189399358
 20
98.926276682
  0
VERTEX
  8
0
 62
7
  6
CONTINUOUS
 10
513.2701565463
 20
98.4750285503
  0
VERTEX
  8
0
 62
7
  6
CONTINUOUS
 10
513.6975805623
 20
98.0476246615
  0
VERTEX
  8
0
 62
7
  6
CONTINUOUS
 10
514.1015509008
 20
97.6436341958
  0
VERTEX
  8
0
 62
7
  6
CONTINUOUS
 10
514.4823545407
 20
97.2628406941
  0
VERTEX
  8
0
 62
7
  6
CONTINUOUS
 10
514.8404895498
 20
96.9046955468
  0
VERTEX
  8
0
 62
7
  6
CONTINUOUS
 10
515.1764515907
 20
96.5687419519
  0
VERTEX
  8
0
 62
7
  6
CONTINUOUS
 10
516.5415970941
 20
95.2035880025
  0
SEQEND
  0
POLYLINE
  8
0
 62
7
  6
CONTINUOUS
 66
1
 70
0
  0
VERTEX
  8
0
 62
7
  6
CONTINUOUS
 10
487.523811673
 20
124.2213734237
  0
VERTEX
  8
0
 62
7
  6
CONTINUOUS
 10
488.8889571764
 20
122.8562194743
  0
VERTEX
  8
0
 62
7
  6
CONTINUOUS
 10
489.2249192173
 20
122.5202658794
  0
VERTEX
  8
0
 62
7
  6
CONTINUOUS
 10
489.5830542265
 20
122.162120732
  0
VERTEX
  8
0
 62
7
  6
CONTINUOUS
 10
489.9638578663
 20
121.7813272303
  0
VERTEX
  8
0
 62
7
  6
CONTINUOUS
 10
490.3678282049
 20
121.3773367646
  0
VERTEX
  8
0
 62
7
  6
CONTINUOUS
 10
490.7952522208
 20
120.9499328759
  0
VERTEX
  8
0
 62
7
  6
CONTINUOUS
 10
491.2464688313
 20
120.4986847442
  0
VERTEX
  8
0
 62
7
  6
CONTINUOUS
 10
491.7214982546
 20
120.0236868421
  0
VERTEX
  8
0
 62
7
  6
CONTINUOUS
 10
492.2203708494
 20
119.5247758323
  0
VERTEX
  8
0
 62
7
  6
CONTINUOUS
 10
492.7428907718
 20
119.0022943248
  0
VERTEX
  8
0
 62
7
  6
CONTINUOUS
 10
493.2888522514
 20
118.4562870052
  0
VERTEX
  8
0
 62
7
  6
CONTINUOUS
 10
493.8577007876
 20
117.8874843091
  0
VERTEX
  8
0
 62
7
  6
CONTINUOUS
 10
494.4488924901
 20
117.296241341
  0
VERTEX
  8
0
 62
7
  6
CONTINUOUS
 10
495.0614563166
 20
116.6837287801
  0
VERTEX
  8
0
 62
7
  6
CONTINUOUS
 10
495.694428648
 20
116.0507042139
  0
VERTEX
  8
0
 62
7
  6
CONTINUOUS
 10
496.3464230751
 20
115.3987620215
  0
VERTEX
  8
0
 62
7
  6
CONTINUOUS
 10
497.0160443774
 20
114.729092697
  0
VERTEX
  8
0
 62
7
  6
CONTINUOUS
 10
497.7015196131
 20
114.0436654836
  0
VERTEX
  8
0
 62
7
  6
CONTINUOUS
 10
498.4010609856
 20
113.3440851589
  0
VERTEX
  8
0
 62
7
  6
CONTINUOUS
 10
499.1125494827
 20
112.632635614
  0
SEQEND
  0
POLYLINE
  8
0
 62
7
  6
CONTINUOUS
 66
1
 70
0
  0
VERTEX
  8
0
 62
7
  6
CONTINUOUS
 10
516.5415970941
 20
95.2035880025
  0
VERTEX
  8
0
 62
7
  6
CONTINUOUS
 10
516.7556827831
 20
94.9894840517
  0
VERTEX
  8
0
 62
7
  6
CONTINUOUS
 10
516.9514940375
 20
94.7936910592
  0
SEQEND
  0
LINE
  8
0
 62
7
  6
CONTINUOUS
 10
486.391439175
 20
125.353748557
 11
487.1139147296
 21
124.631270367
  0
LINE
  8
0
 62
7
  6
CONTINUOUS
 10
516.9514940375
 20
94.7936910592
 11
517.6739695921
 21
94.0712128691
  0
LINE
  8
0
 62
7
  6
CONTINUOUS
 10
499.1125494827
 20
112.632635614
 11
504.9528592845
 21
106.7923258122
  0
LINE
  8
0
 62
7
  6
CONTINUOUS
 10
486.0327043836
 20
125.7124807131
 11
486.391439175
 21
125.353748557
  0
LINE
  8
0
 62
7
  6
CONTINUOUS
 10
517.6739695921
 20
94.0712128691
 11
518.0327043836
 21
93.7124807131
  0
LINE
  8
0
 62
7
  6
CONTINUOUS
 10
486.0327043836
 20
125.7124807131
 11
486.0327043836
 21
209.7124807131
  0
LINE
  8
0
 62
7
  6
CONTINUOUS
 10
518.0327043836
 20
93.7124807131
 11
518.0327043836
 21
209.7124807131
  0
ENDSEC
  0
EOF
